Song name
# A B C D E F G H I J K L M N O P Q R S T U V W X Y Z

The Sounds - Night After Night tab

-------------------------------------------------------------------------------
			     Night After Night-The Sounds
-------------------------------------------------------------------------------
Tabbed by: Capptress Kidd
Email: capptresskidd@yahoo.com

Tuning: Standard
Intro
e|---------------------------------------------------------------------------|
B|-----(x16)------(x8)----(x16)----(x8)--------------------------------------|
G|--9-----------8-------9-------8--------------------------------------------|
D|--9-----------9-------9-------9--------------------------------------------|
A|--7-----------7-------7-------7--------------------------------------------|
E|---------------------------------------------------------------------------|

Main Riff Guitar 1- Play 4 times
e|--99999-11-12-9----44444-77-4----------------------------------------------|
B|--99999-11-12-9----44444-77-4----------------------------------------------|
G|---------------------------------------------------------------------------|
D|---------------------------------------------------------------------------|
A|---------------------------------------------------------------------------|
E|---------------------------------------------------------------------------|

Main Riff Guitar 2- play 4 times
e|---------------------------------------------------------------------------|
B|---------------------------------------------------------------------------|
G|--9------------------------------------------------------------------------|
D|--9---9--------------------------------------------------------------------|
A|--7---9--------------------------------------------------------------------|
E|------7--------------------------------------------------------------------|

1st part of the verse play nothing
Then play the main riff once

Verse
e|---------------------------------------------------------------------------|
B|--------------------------12-----------------------------------------------|
G|--13-13-11----------13-13----13---------14-14--13-11-----------------------|
D|-----------13--14----------------14-11-------------------------------------|
A|---------------------------------------------------------------------------|
E|---------------------------------------------------------------------------|

Play Main Riff

Chorus
e|-----------------------------------------------|
B|----(x8)---(x8)---(x16)------------------------|
G|--6------8------9---------(x8)---(x8)---(x16)--|
D|--6------8------9-------7------6------9--------|
A|--4------6------7-------7------6------9--------|
E|------------------------5------4------7--------|


Play main riff
Rest for the first part of the verse
Play the main riff
Play verse
Play Main Riff
Chorus

Alternative Chorus
e|----------------------------------------------|
B|----(x8)--(x8)---(x16)------------------------|
G|--9-----4------6---------(x8)---(x8)---(x16)--|
D|--9-----4------6-------7------6------9--------|
A|--7-----2------4-------7------6------9--------|
E|-----------------------5------4------7--------|

Break Part 1
e|-------------------------------------------------------------------------|
B|-------------------(play like 92 times, gosh I hate writing pick #s)-----|
G|--6-(x29)-4-(x3)-6-------------------------------------------------------|
D|--6-------4------6-------------------------------------------------------|
A|--4-------2------4-------------------------------------------------------|
E|-------------------------------------------------------------------------|

Break Part 2
e|--------------------------------------------------------------------------|
B|----(x8)-------------------(x8)---(till you reach the chorus)-------------|
G|--9--------(x8)---(x16)--9------4-----------------------------------------|
D|--9------9------11-------9------4-----------------------------------------|
A|--7------9------11-------7------2-----------------------------------------|
E|---------7------9---------------------------------------------------------|

Alternative Chorus x2

Outro- play till the end
e|------------------------------------------------------------------------------|
B|------------------------------------------------------------------------------|
G|-9----------------------------------------------------------------------------|
D|-9----------------------------------------------------------------------------|
A|-7----------------------------------------------------------------------------|
E|------------------------------------------------------------------------------|


| /  slide up
| \  slide down
| h  hammer-on
| p  pull-off
| ~  vibrato
| +  harmonic
| x  Mute note
===============================================================================
Tap to rate this tab
 
# A B C D E F G H I J K L M N O P Q R S T U V W X Y Z