Song name
# A B C D E F G H I J K L M N O P Q R S T U V W X Y Z

The Sounds - No One Sleeps When Im Awake tab

-------------------------------------------------------------------------------
			     NO ONE SLEEPS WHEN I'M AWAKE- The Sounds
-------------------------------------------------------------------------------
Tabbed by: bearwrestler45
Tuning: Standard


Intro riff:
e|---------------------------------------------------------------------------|
B|---------------------------------------------------------------------------|
G|--------4---4---------3---3---3--------------------------------------------|
D|-/4-4-4---4---4-4-4-4---4---4---4-4-4-4-4-4-4-4-3-3-3-3-3-3-3-3------------|
A|---------------------------------------------------------------------------|
E|---------------------------------------------------------------------------|

e|---------------------------------------------------------------------------|
B|---------------------------------------------------------------------------|
G|--------4---4-6--4--3-3-3-3-3-3-3-3----------------------------------------|
D|-/4-4-4---4--------------------------4-3-3-3-3-3-3-3-3---------------------|
A|--------------------------------------------------------4-4-4-4-4-4-4-4----|
E|---------------------------------------------------------------------------|

e|---------------------------------------------------------------------------|
B|-------------12------12-------12----------------11------11------11---------|
G|-11--11--11------11------11----------11--11--11-----11------11-------------|
D|---------------------------------------------------------------------------|
A|---------------------------------------------------------------------------|
E|---------------------------------------------------------------------------|

e|---------------------------------------------------------------------------|
B|---------------------------------------------------------------------------|
G|--11-11-11-11-11-11-11-11-11-10-10-10-10-10-10-10-10-----------------------|
D|---------------------------------------------------------------------------|
A|---------------------------------------------------------------------------|
E|---------------------------------------------------------------------------|

e|---------------------------------------------------------------------------|
B|------------12----12--14--12-----------11------11----11--------------------|
G|--11-11-11-----11-------------11-11-11-----11-----11-----------------------|
D|---------------------------------------------------------------------------|
A|---------------------------------------------------------------------------|
E|---------------------------------------------------------------------------|

e|---------------------------------------------------------------------------|
B|---------------------------------------------------------------------------|
G|--10-10-10-10-10-10-10-10--------------------------------------------------|
D|---------------------------11-11-11-11-11-11-11-11h13-13-------------------|
A|---------------------------------------------------------------------------|
E|---------------------------------------------------------------------------|

          D#m
I've seen people losing all of their faith
                                F#
before they knew what they were looking for
            C#
I swore I'd never ever do it again
          B
till this day
C#              D#m
Words are all I have to give to you
                  F#
you never seem to see it my way
C#
Standing in the shadows I hear
       B
people say
          F#
I've got confessions to make
       C#
listen up

no one sleeps when I'm awake


CHORUS:

e|---------------------------------------------------------------------------|
B|--------------------------12--12---14--------------------------------------|
G|----------11--11--13--13-----------------------11-11--13-------------------|
D|--13--13--------------------------------13-13------------------------------|
A|---------------------------------------------------------------------------|
E|---------------------------------------------------------------------------|

e|---------------------------------------------------------------------------|
B|---------------------------------------------------------------------------|
G|-11-11-11-11-11-11-11-11-10-10-10-10-10-10-10-10---------------------------|
D|---------------------------------------------------------------------------|
A|---------------------------------------------------------------------------|
E|---------------------------------------------------------------------------|

e|---------------------------------------------------------------------------|
B|--------------------------12--12---14--------------------------------------|
G|----------11--11--13--13-----------------------11-11--13-------------------|
D|--13--13--------------------------------13-13------------------------------|
A|---------------------------------------------------------------------------|
E|---------------------------------------------------------------------------|

e|---------------------------------------------------------------------------|
B|---------------------------------------------------------------------------|
G|-10-10-10-10-10-10-10-10---------------------------------------------------|
D|--------------------------11-11-11-11-11-11-11-11--------------------------|
A|---------------------------------------------------------------------------|
E|---------------------------------------------------------------------------|
[and then back into the riff from the beginning]

    B
The dreams I dream
    F#              C#  
the song I sing for you
                       B
they're coming from my heart
      F#              C#
is my message getting through?
            B
You know it hurts so bad
F#                      C#
just like i knew that it would
        B 
but I'd do it again
    F#               C#
I'd do it again if I could

I'd do it again if I could.


[Verse 2:]
D#m
I don't think you know what it's like
                                  F#
you should be careful what you're wishing for
    C#
and try to set your ego aside
         B
you will find
  C#             D#m
a false piece of mind

you fall behind
                        F# 
and everybody's getting tired of you
C#
standing in the shadows i hear
       B
people say
         F#
I've got confessions to make
       C#
listen up

no one sleeps when i'm awake


[repeat CHORUS]


[BRIDGE:]
e|--14----------14--------14--------14--14----------14---------14------------|
B|----------12---------12--------12----------11-12------11-12----------------|
G|-------11---------11--------11---------------------------------------------|
D|---------------------------------------------------------------------------|
A|---------------------------------------------------------------------------|
E|---------------------------------------------------------------------------|

e|--------14----14--14--13/14--14---------14---------14---------14-----------|
B|--11-12------------------------------12---------12---------12--------------|
G|----------------------------------11---------11---------11-----------------|
D|---------------------------------------------------------------------------|
A|---------------------------------------------------------------------------|
E|---------------------------------------------------------------------------|

e|---------------------------------------------------------------------------|
B|----------12----12----12----------11-----11-----11-------------------------|
G|-11-11-11----11----11----11-11-11----11-----11----11-11-11-11-11-11-11-11--|
D|---------------------------------------------------------------------------|
A|---------------------------------------------------------------------------|
E|---------------------------------------------------------------------------|

e|---------------------------------------------------------------------------|
B|------------------------------------12-----12--14--12--11-11-11-11-11-11---|
G|-10-10-10-10-10-10-10-10--11-11-11------11---------------------------------|
D|---------------------------------------------------------------------------|
A|---------------------------------------------------------------------------|
E|---------------------------------------------------------------------------|

e|---------------------------------------------------------------------------|
B|---------------------------------------------------------11-11-12-12-------|
G|-10-10-10-10-10-10-10-10---------------10-10-11-11-13-13-------------------|
D|---------------------------11-11-13-13-------------------------------------|
A|---------------------------------------------------------------------------|
E|---------------------------------------------------------------------------|

e|---------------------------------------------------------------------------|
B|-14-14-14-14-14-14-14-14-11-11-11-11-11-11-11-11---------------------------|
G|--------------------------------------------------13-13-13-13-13-13-13-13--|
D|---------------------------------------------------------------------------|
A|---------------------------------------------------------------------------|
E|---------------------------------------------------------------------------|

e|---------------------------------------------------------------------------|
B|---------------------------------------------------------------------------|
G|-13-13-13-13-13-13-13-13-11-11-11-11-11-11-11-11---------------------------|
D|-------------------------------------------------11-11-11-11-11-11-11-11---|
A|---------------------------------------------------------------------------|
E|---------------------------------------------------------------------------|

[back into chorus riff, with variations, for rest of song]

B
Hey, hey, hey
              F#
i want you to know (know know know)
B
hey, hey, hey, hey

Tap to rate this tab
# A B C D E F G H I J K L M N O P Q R S T U V W X Y Z