Guitaretab - guitar tabs
Song name
# A B C D E F G H I J K L M N O P Q R S T U V W X Y Z

The Sounds - Like A Lady tab

This is a great song by the sounds, and I wanted to share it with all of you guys.
Key of C#
In the beginning of the song, you can hear that they are deadening and then un-deadening 
hit the note. I marked the parts where they deaden with the x's. In the intro and the 
of verse 1, they are doing up and down strums. So the strumming pattern would be 
DUDUDUD then it repeats.

Intro
e|--------------------------------------------------------------------------------|
B|--------------------------------------------------------------------------------|
G|--13----------------------------------------------------------------------------|
D|------x-x-11-x-x-x-11-x-x-x-11-x-x-11-x-11-x-x-11-x-x-x-11-x-x-x-11-x-x-11-x-11-|
A|------x-x----x-x-x----x-x-x----x-x----x----x-x----x-x-x----x-x-x----x-x----x----|
E|------x-x--9-x-x-x--9-x-x-x--9-x-x--9-x--9-x-x--9-x-x-x--9-x-x-x--9-x-x--9-x--9-|

Verse 1: this is played exactly the same as the intro. The guitar doesnít switch chords 
the synthesizer thing does.
e|---------------------------------------------------------------------------|
B|---------------------------------------------------------------------------|
G|---------------------------------------------------------------------------|
D|-x-x-11-x-x-x-11-x-x-x-11-x-x-11-x-11-x-x-11-x-x-x-11-x-x-x-11-x-x-11-x-11-|
A|-x-x----x-x-x----x-x-x----x-x----x----x-x----x-x-x----x-x-x----x-x----x----|
E|-x-x--9-x-x-x--9-x-x-x--9-x-x--9-x--9-x-x--9-x-x-x--9-x-x-x--9-x-x--9-x--9-|2x

Pre-Chorus(before the verse):
e|-----------------------------------------------------------|
B|-----------------------------------------------------------|
G|-----------------------------------------------------------|
D|-6--------------4------------------8-8----8------8-8---8-8-|
A|-6--------------4------------------8-8----8------8-8---8-8-|
E|-4--------------2------------------6-6----6------6-6---6-6-|2x

Verse 2: If you listen to the song, you can hear that they aren't doing power chords 
They are just playing the single notes
e|----------------------------------------------------------------|
B|----------------------------------------------------------------|
G|----------------------------------------------------------------|
D|----------------------------------------------------------------|
A|---------------------------------------------------------6b--6r-|
E|--9--9----9----9--9----9----9----9/6-----6---6-6-6-9-6----------|

Pre-chorus(before the chorus):
e|-----------------------------------------------------------|
B|-----------------------------------------------------------|
G|-----------------------------------------------------------|
D|-6--------------4------------------8-8----8------8-8---8-8-|
A|-6--------------4------------------8-8----8------8-8---8-8-|
E|-4--------------2------------------6-6----6------6-6---6-6-|
[ Tab from: http://www.guitaretab.com/t/the-sounds/188721.html ]
e|---------------------------------------------------------------|
B|---------------------------------------------------------------|
G|---------------------------------------------------------------|
D|-6--------------4--------------8-8-8-8-8-8-8-8-8-8-8-8-8-8-8-8-|
A|-6--------------4--------------8-8-8-8-8-8-8-8-8-8-8-8-8-8-8-8-|
E|-4--------------2--------------6-6-6-6-6-6-6-6-6-6-6-6-6-6-6-6-|

Chorus:
e|----------------------------------------------------------------|
B|----------------------------------------------------------------|
G|----------------------------------------------------------------|
D|----8-8-8-8-8-8-6-6-6-6-6-6-6-6-4-4-4-4-4-4-4-4-6-6-6-6-6-6-6-6-|
A|----8-8-8-8-8-8-6-6-6-6-6-6-6-6-4-4-4-4-4-4-4-4-6-6-6-6-6-6-6-6-|
E|----6-6-6-6-6-6-4-4-4-4-4-4-4-4-2-2-2-2-2-2-2-2-4-4-4-4-4-4-4-4-|2x

Then the song does the verse one time instrumentally and then she starts to sing. Verse 
is played just like verse 2. Then they play the interlude before the chorus again and 
do the chorus 3x. Then they have a little solo part
Solo:
e|---------------------------------------------------------|
B|---------------------------------------------------------|
G|---------------------------------------------------------|
D|---------------------------------------------------------|
A|---------------------6b--6r-----------------------6b--6r-|
E|-6---6---6-6-6-9-6-------------6---6---6-6-6-9-6---------|

e|-----------------------------------------------------------|
B|-----------------------------------------------------------|
G|-----------------------------------------------------------|
D|-----------------------------------------------------------|
A|-----------------------6b--6r-----------------------6b--6r-|
E|-6-6---6---6-6-6-9-6------------6---6---6-6-6-9-6----------|

Then the solo quickly turns into the bridge.
Bridge:
e|--------------------------------------------------------|
B|--------------------------------------------------------|
G|--------------------------------------------------------|
D|--------------------------------------------------------|
A|----------------------6b--6r--4--4--4-6-6-4-----6b--6r--|
E|--9--6--6---6-4-4--4------------------------6-----------|

Order of song with lyrics:
Intro

Verse 1:
Talking smooth and play by the rules like a lady
Hang on loose and always stay cool like a lady

Pre-chorus(before the verse):
Listen to the songs and learn to sing along
on the radio, radio. Fire in my eyes and
boys on my mind they come and go; they come and go

Verse 2:
Kiss every man while you still can like a lady
Then pull yourself up and dance till you drop
Iím your baby, baby.

Pre-Chorus(before the chorus):
Listen to the songs and learn to sing along
on the radio, radio. Fire in my eyes and boys
by my side. theyíre mine you know! oh

Chorus:
Tonight, my baby weíve got a love so
strong let the thing go on
Itís alright, my baby if it feels so
good then it canít be wrong

Verse 2
Pre-Chorus(before the chorus)
Chorus
Solo

Bridge:
Listen to songs and learn to sing along
on the radio, radio. Fire in my eyes and
boys on my mind. They come and go; They come
and go.

Chorus
Related for Like A Lady tab