Song name
# A B C D E F G H I J K L M N O P Q R S T U V W X Y Z

The Sounds - Dorchester Hotel tab

Hello hello, couldent find a tab in UG, so decided to tab it out!
I wrote the skeleton out on a desktop notepad, so some repeated parts(those with a . at 
bottom) is just represented once over. :D.. just repeat them as much as needed!

Hope it gives you the general idea of the song... guitar 2 uses some keyboard in between 
at the back, yet to tab it out for guitar tho.

-------------------------------------------------------------------------
Dorchester Hotel

Guitar1
e|--10----10----10--9----9----9------------------14-14-----------|
b|----10----10-------10---10---------------15-15-----------------|
g|------11----11-------11---11-------14-14-----------------------|
d|---------------------------------------------------------------|
a|----------------------------verse------------------------------|
e|---------------------------------------------------------------|
          .              .
e|------------chorus------------------outro chorus---------------|
b|---------------------------------------------------------------|
g|----77--99----------------7--------77--------------------------|
d|----77--99--99--55--5--7--7--------77--77--99--55--------------|
a|----55--77--99--55--5--7--5--------55--77--99--55--------------|
e|------------77--33--3--5---------------55--77--33--------------|
      .   .    .   .                 .    .   .   .
Guitar2
e|------------------------verse----------------------------------|
b|---------------------------------------------------------------|
g|--11h12p11---9-------------------------------------------------|
d|---------------11-12-------------------------------------------|
a|---------------------------------------------------------------|
e|---------------------------------------------------------------|

e|----------chorus---------------------outro---------------------|
b|---------------------------------------------------------------|
g|----77--99----------------7-----77-----------------------------|
d|----77--99--99--55--5--7--7-----77--77--99--55-----------------|
a|----55--77--99--55--5--7--5-----55--77--99--55-----------------|
e|------------77--33--3--5------------55--77--33-----------------|
       .   .   .   .               .   .   .   .
Tap to rate this tab
 
# A B C D E F G H I J K L M N O P Q R S T U V W X Y Z