Song name
# A B C D E F G H I J K L M N O P Q R S T U V W X Y Z

The Sounds - No One Sleeps When Im Awake tab

|----------------------------------------------------------------------|
|----------------------------------------------------------------------|
|--------4-4-4---------3-3-3---------------------4-4-6-4-3-3-3-3-3-3---|
|--4-4-4--4-4-4--4-4-4--4-4-4-4-4/3-3-3-3-3/4-4-4-4--------------------|
|----------------------------------------------------------------------|
|----------------------------------------------------------------------|

|----------------------------------------------------------------------|
|----------------------------------------------------------------------|
|-------------------------------------/----------12-12-12------------11|
|-4-4-4-4-4-3-3-3-3-3-3-3-------------/-11-11-11--11-11-11--11-11-11---|
|-------------------------4-4-4-4-4-4-/--------------------------------|
|----------------------------------------------------------------------|

|----------------------------------------------------------------------|
|----------------------------------------------------------------------|
|-11-11--------------------------------12-12-14-12-11-11-11-11-11-11---|
|11-11-11-11-11/10-10-10-10-10/11-11-11-11-11--------------------------|
|----------------------------------------------------------------------|
|----------------------------------------------------------------------|

|----------------------------------------------------------------------|
|----------------------------------------------------------------------|
|----------------------------------------------------------------------|
|-11-11-11-11-11-10-10-10-10-10-10-10----------------------------------|
|----------------------------------------11-11-11-11-11-11-------------|
|----------------------------------------------------------------------|
Tap to rate this tab
 
# A B C D E F G H I J K L M N O P Q R S T U V W X Y Z