Song name
# A B C D E F G H I J K L M N O P Q R S T U V W X Y Z

The Sounds - Beatbox tab

----------------------------------------------------------------------------
The Sounds - Beatbox
----------------------------------------------------------------------------

Tabbed by : Vanessa Fournier
Email : rock_the_nation_666@hotmail.com

Standard tuning

Intro :
------------------|
------------------|
----77----7-------|
----77----7-------|
----55----5-------|
------------------|

Solo :
------------------------------------------------|
12-12-13p12-15p12-13p12-12-12-13p12-15p12-13p12-|
------------------------------------------------|
------------------------------------------------|
------------------------------------------------|
------------------------------------------------|

-------------15--------------------15----------|
-13-13-15p13---13-15p13-13-13-15p13---13-15p13-|
-----------------------------------------------|
-----------------------------------------------|
-----------------------------------------------|
-----------------------------------------------|

-----------------------------------------------|
10-10-12p10-13p10-12p10-10-10-12p10-13p10-12p10|
-----------------------------------------------|
-----------------------------------------------|
-----------------------------------------------|
-----------------------------------------------|

------------------------------------------|
-10-10-12p10-13p10-12p10-7-7-8p7-10p7-8p7 |
------------------------------------------|
------------------------------------------|  x2
------------------------------------------|
------------------------------------------|

Verse -> Bass + Synth..

------------------|
------------------|
----77----7-------|
----77----7-------|
----55----5-------|
------------------|

Chorus :

---------|----------|---------|
---------|----------|---------|
---9-----|-14----12-|---7-----|
---9-----|-14----12-|---7-----| x2
---7-----|-12----10-|---5-----|
---------|----------|---------|

Repeat solo once

Verse -> Bass + Synth

Repeat Chorus x4

Solo 2 :

---------------------------|------------------------|
---------------------------|------------------------|
----------2/7-7---7-9-9----|---------2/7-7---7-9-9--|
-2-2-2-2-------------------|-2-2-2-2----------------|
---------------------------|------------------------|
---------------------------|------------------------|

---------------------------|------------------------|
---------------------------|------------------------|
----------2/7-7---7-9-9----|------------------------|
-2-2-2-2-------------------|-2-2-2-2--77775555------| x3
---------------------------|------------------------|
---------------------------|------------------------|


Chorus x4

Solo x2

The End
Tap to rate this tab
 
# A B C D E F G H I J K L M N O P Q R S T U V W X Y Z