Song name
# A B C D E F G H I J K L M N O P Q R S T U V W X Y Z

The Sounds - Hurt You tab

---------------------------------------------------------------------------
                         The Sounds - Hurt you
---------------------------------------------------------------------------

Tabbed by Vanessa Fournier
email : rock_the_nation_666@hotmail.com

Verse :

-------------------------|--------------|
-----5-----5--7-----7----|--------------|
--r--6--r--6--7--r--7----|--r--r--r--r--|
--r--7--r--7--5--r--5----|--r--r--r--r--| x4 
-------------------------|--------------|
-------------------------|--------------|

-------------------------|--------------|
-----5-----5--7----------|--------------|
--r--6--r--6--7--r--7----|--r--r--r--r--|
--r--7--r--7--5--r--7----|--r--r--r--r--|  
--------------------5----|--------------|
-------------------------|--------------|

-------------------------|--------------|
-----5-----5--7-----7----|--------------|
--r--6--r--6--7--r--7----|--r--r--r--r--|
--r--7--r--7--5--r--5----|--r--r--r--r--| x2 
-------------------------|--------------|
-------------------------|--------------|

-------------------------|--------------|
-----5-----5--7----------|--------------|
--r--6--r--6--7--r--7----|--r--r--r--r--|
--r--7--r--7--5--r--7----|--r--r--r--r--|  
--------------------5----|--------------|
-------------------------|--------------|

Chorus:

---------------|----------------|----------------|--------------|
-7-7-7-7-------|----------------|-7-7-77-7-------|--------------|
---------7--r--|-7-7-7-7---9----|----------7--r--|-7-7----9-----|
---------------|---------7---9--|----------------|-----7----9---| x2
---------------|----------------|----------------|--------------|
---------------|----------------|----------------|--------------|

----------------|
----------------|
------------7-7-|
-9-r-9-r-97----9|
----------------|
----------------|

Replay Verse 

Replay Chorus

-----------------|-----------------|-----------------|-----------------|
-----------------|-----------------|-5---5---5---5---|-5---5---5---5---|
-4-r-4-r-4-r-4-r-|-7-r-7-r-7-r-7-r-|-6-r-6-r-6-r-6-r-|-6-r-6-r-6-r-6-r-|
-4-r-4-r-4-r-4-r-|-7-r-7-r-7-r-7-r-|-7-r-7-r-7-r-7-r-|-7-r-7-r-7-r-7-r-|x2
-2---2---2---2---|-5---5---5---5---|-----------------|-----------------|
-----------------|-----------------|-----------------|-----------------|

----------------|
----------------|
------------7-7-|
-9-r-9-r-97----9|
----------------|
----------------|

Solo

Replay Verse

-----------------|-----------------|-----------------|-----------------|
-----------------|-----------------|-5---5---5---5---|-5---5---5---5---|
-4-r-4-r-4-r-4-r-|-7-r-7-r-7-r-7-r-|-6-r-6-r-6-r-6-r-|-6-r-6-r-6-r-6-r-|
-4-r-4-r-4-r-4-r-|-7-r-7-r-7-r-7-r-|-7-r-7-r-7-r-7-r-|-7-r-7-r-7-r-7-r-|x6
-2---2---2---2---|-5---5---5---5---|-----------------|-----------------|
-----------------|-----------------|-----------------|-----------------|

The End!

| r Rest
Tap to rate this tab
# A B C D E F G H I J K L M N O P Q R S T U V W X Y Z