Song name
# A B C D E F G H I J K L M N O P Q R S T U V W X Y Z

The Sounds - Tony The Beat tab

----------------------------------------------------------------------------
                         The Sounds - Tony the Beat
                          (Rex the Dog remix live)
----------------------------------------------------------------------------
 
Tabbed by Vanessa Fournier
Email : rock_the_nation_666@hotmail.com

Intro + Verse :

------------------|------------------|------------------|------------------|
------------------|------------------|------------------|------------------|
-9-r-r-9-r-9-r-12-|-9-r-r-9-r-9-r-12-|-9-r-r-9-r-9-r-12-|-9-r-r-9-r-9-r-12-|
-9-r-r-9-r-9-r-12-|-9-r-r-9-r-9-r-12-|-9-r-r-9-r-9-r-12-|-9-r-r-9-r-9-r-12-|
------------------|------------------|------------------|------------------|
------------------|------------------|------------------|------------------|

------------------|------------------|---------------------|
------------------|------------------|-12-----12---12---12-|
-9-r-r-9-r-9-r-12-|-9-r-r-9-r-9-r-12-|-11-r-r-11-r-11-r-11-|
-9-r-r-9-r-9-r-12-|-9-r-r-9-r-9-r-12-|----r-r----r----r----|
------------------|------------------|---------------------|
------------------|------------------|---------------------|

----------------------|------------------|
-12---13---14---15-16-|-17/--------------|
-11-r-12-r-13-r-14-15-|-16--r-9-r-9-r-12-| ... Replay twice from 2nd measure
----r----r----r-------|-----r-9-r-9-r-12-|
----------------------|------------------|
----------------------|------------------|

Chorus :

-----------------|--------------------|-----------------|-----------------|
-------r-----r---|----------r-------r-|-------r-----r---|-------r-----r---|
-5-5-5-r-5-5-r-5-|-12-12-12-r-7-7-7-r-|-9-9-9-r-9-9-r-9-|-7-7-7-r-7-7-r-7-|
-5-5-5---5-5---5-|-12-12-12---7-7-7---|-9-9-9---9-9---9-|-7-7-7---7-7---7-|
-3-3-3---3-3---3-|-10-10-10---5-5-5---|-7-7-7---7-7---7-|-5-5-5---5-5---5-|
-----------------|--------------------|-----------------|-----------------|
x2

You replay those parts during all the song, and you can do some improvisation in the interlude !

Enjoy!
Vanessa

Tap to rate this tab
# A B C D E F G H I J K L M N O P Q R S T U V W X Y Z