The Sounds - Wish You Were Here tab

Band : The Sounds
Song : Wish you were here
Album : Something to die for (2011)

Standard tuning EADGBE

Verse:
|-----------------|-----------------|---------0-------|---------0-------|
|---------5-------|---------5-------|-----0-----0---0-|-----0-----0---0-|
|-----6-----6---6-|-----6-----6---6-|---1---1-----1---|---1---1-----1---|
|---6---6-----6---|---6---6-----6---|-2---------------|-2---------------| X6
|-4---------------|-4---------------|-----------------|-----------------|
|-----------------|-----------------|-----------------|-----------------|

Chorus:
|-----------------|-----------------|-----------------|---------4-------|
|-----------------|-----------------|-----------------|-----5-----5---5-|
|---------8-------|---------8-------|---------6-------|---4---4-----4---|
|-----9-----9---9-|-----9-----9---9-|-----7-----7---7-|-----------------| X2
|---9---9-----9---|---9---9-----9---|---7---7-----7---|-----------------|
|-7---------------|-7---------------|-5---------------|-0---------------|

Verse X6

Chorus X2

Verse X6

Choruse X2

Verse X2
Tap to rate this tab
 
# A B C D E F G H I J K L M N O P Q R S T U V W X Y Z