Song name
# A B C D E F G H I J K L M N O P Q R S T U V W X Y Z

The Sounds - Living In America tab

So, this is my version of "Living in America" by The Sounds. Any corrections are welcome.

(normal tuning)

Intro:
e|--------------------------------------------------------------------------|
B|--------------------------------------------------------------------------|
G|------------------9-9-9-9-9-9-9-9-----------------------------------------|
D|-6-6-6-6-6-6-6-6--9-9-9-9-9-9-9-9--9-9-9-9-9-9-9-9-9-9-9-9----------------|
A|-6-6-6-6-6-6-6-6--7-7-7-7-7-7-7-7--9-9-9-9-9-9-9-9-9-9-9-9----------------|
E|-4-4-4-4-4-4-4-4-------------------7-7-7-7-7-7-7-7-7-7-7-7----------------| x3

e|----------------------------|
B|----------------------------|
G|----------------------------|
D|-6-6-6-6-6-6-6-6------------|
A|-6-6-6-6-6-6-6-6------------|
E|-4-4-4-4-4-4-4-4------------|

Verse 1: "Teenage porn stars..."
e|--------------------------------------------------------------------------|
B|--------------------------------------------------------------------------|
G|------------------8-8-8-8-9-9-9-9-------------------4-4-4-6-6-6-8---------|
D|-6-6-6-6-6-6-6-6--8-8-8-8-9-9-9-9--6-6-6-6-6-6-6-6--4-4-4-6-6-6-8---------|
A|-6-6-6-6-6-6-6-6--6-6-6-6-7-7-7-7--6-6-6-6-6-6-6-6--2-2-2-4-4-4-6---------|
E|-4-4-4-4-4-4-4-4-------------------4-4-4-4-4-4-4-4------------------------|


e|--------------------------------------------------------------------------|
B|--------------------------------------------------------------------------|
G|------------------8-8-8-8-9-9-9-9-----------------------------------------|
D|-6-6-6-6-6-6-6-6--8-8-8-8-9-9-9-9--4-4-4-4-4-4-4-4-4-4-4-4----------------|
A|-6-6-6-6-6-6-6-6--6-6-6-6-7-7-7-7--4-4-4-4-4-4-4-4-4-4-4-4----------------|
E|-4-4-4-4-4-4-4-4-------------------2-2-2-2-2-2-2-2-2-2-2-2----------------|
x2


Chorus: "We're not living in America..."
e|--------------------------------------------------------------------------|
B|--------------------------------------------------------------------------|
G|------------------9-9-9-9-9-9-9-9-----------------------------------------|
D|-6-6-6-6-6-6-6-6--9-9-9-9-9-9-9-9--9-9-9-9-9-9-9-9-9-9-9-9----------------|
A|-6-6-6-6-6-6-6-6--7-7-7-7-7-7-7-7--9-9-9-9-9-9-9-9-9-9-9-9----------------|
E|-4-4-4-4-4-4-4-4-------------------7-7-7-7-7-7-7-7-7-7-7-7----------------|
x4

e|----------------------------|
B|----------------------------|
G|----------------------------|
D|-6-6-6-6-6-6-6-6------------|
A|-6-6-6-6-6-6-6-6------------|
E|-4-4-4-4-4-4-4-4------------|


Verse 2: "Pretty as a picture..."
e|--------------------------------------------------------------------------|
B|--------------------------------------------------------------------------|
G|------------------8-8-8-8-9-9-9-9-------------------4-4-4-6-6-6-8---------|
D|-6-6-6-6-6-6-6-6--8-8-8-8-9-9-9-9--6-6-6-6-6-6-6-6--4-4-4-6-6-6-8---------|
A|-6-6-6-6-6-6-6-6--6-6-6-6-7-7-7-7--6-6-6-6-6-6-6-6--2-2-2-4-4-4-6---------|
E|-4-4-4-4-4-4-4-4-------------------4-4-4-4-4-4-4-4------------------------|


e|--------------------------------------------------------------------------|
B|--------------------------------------------------------------------------|
G|------------------8-8-8-8-9-9-9-9-----------------------------------------|
D|-6-6-6-6-6-6-6-6--8-8-8-8-9-9-9-9--4-4-4-4-4-4-4-4-4-4-4-4----------------|
A|-6-6-6-6-6-6-6-6--6-6-6-6-7-7-7-7--4-4-4-4-4-4-4-4-4-4-4-4----------------|
E|-4-4-4-4-4-4-4-4-------------------2-2-2-2-2-2-2-2-2-2-2-2----------------| x2


Bridge thingy:
e|--------------------------------------------------------------------------|
B|--------------------------------------------------------------------------|
G|------------------------------------4-4-4-4-4-4-4-4--6-6-6-6-6-6-6-6------|
D|--6-6-6-6-6-6-6-6--8-8-8-8-8-8-8-8--4-4-4-4-4-4-4-4--6-6-6-6-6-6-6-6------|
A|--6-6-6-6-6-6-6-6--8-8-8-8-8-8-8-8--2-2-2-2-2-2-2-2--4-4-4-4-4-4-4-4------|
E|--4-4-4-4-4-4-4-4--6-6-6-6-6-6-6-6----------------------------------------| x4

"We're not living~"
e|----------------------------|
B|----------------------------|
G|-6~---6-6-6-6-x-------------|
D|-6~---6-6-6-6-x-------------|
A|-4~---4-4-4-4-x-------------|
E|----------------------------|


Chorus: "We're not living in America..."
e|--------------------------------------------------------------------------|
B|--------------------------------------------------------------------------|
G|------------------9-9-9-9-9-9-9-9-----------------------------------------|
D|-6-6-6-6-6-6-6-6--9-9-9-9-9-9-9-9--9-9-9-9-9-9-9-9-9-9-9-9----------------|
A|-6-6-6-6-6-6-6-6--7-7-7-7-7-7-7-7--9-9-9-9-9-9-9-9-9-9-9-9----------------|
E|-4-4-4-4-4-4-4-4-------------------7-7-7-7-7-7-7-7-7-7-7-7----------------|
x4



Outro:
e|---------------------------------------------------------------------|   |-----|
B|---------------------------------------------------------------------|   |-----|
G|------------------------------------4-4-4-4-4-4-4-4--6-6-6-6-6-6-6-6-|   |-----|
D|--6-6-6-6-6-6-6-6--8-8-8-8-8-8-8-8--4-4-4-4-4-4-4-4--6-6-6-6-6-6-6-6-|   |-6~--|
A|--6-6-6-6-6-6-6-6--8-8-8-8-8-8-8-8--2-2-2-2-2-2-2-2--4-4-4-4-4-4-4-4-|   |-6~--|
E|--4-4-4-4-4-4-4-4--6-6-6-6-6-6-6-6-----------------------------------|x3 |-4~--|
Tap to rate this tab
# A B C D E F G H I J K L M N O P Q R S T U V W X Y Z