Song name
# A B C D E F G H I J K L M N O P Q R S T U V W X Y Z

The Sounds - Hit Me tab

After watching the video, I began to play on this song a bit and I think I got it all right.

e|-------------------------12-11------------------|
B|-12-12-12-12-12-12-12-12-------12-10-10-12-12-12|
G|------------------------------------------------| (x3)
D|------------------------------------------------|
A|------------------------------------------------|
E|------------------------------------------------|

Wake Me Up...
e|--------------------------------|---------------------------------|
B|--------------------------------|---------------------------------|
G|--------------------------------|---------------------------------|
D|-9-9-9-9-9-9-9-9-5-5-5-5-7-7-7-7|-9-9-9-9-9-9-9-9-5-5-5-5-4-4-4-4-|
A|-9-9-9-9-9-9-9-9-5-5-5-5-7-7-7-7|-9-9-9-9-9-9-9-9-5-5-5-5-4-4-4-4-|
E|-7-7-7-7-7-7-7-7-3-3-3-3-5-5-5-5|-7-7-7-7-7-7-7-7-3-3-3-3-2-2-2-2-|

Try To Shut...
e|--------------------------------|---------------------------|
B|--------------------------------|---------------------------|
G|--------------------------------|---------------------------|
D|-9-9-9-9-9-9-9-9-5-5-5-5-7-7-7-7|-9-9-9-9-9-9-9-9-5-5-5-5-4-|
A|-9-9-9-9-9-9-9-9-5-5-5-5-7-7-7-7|-9-9-9-9-9-9-9-9-5-5-5-5-4-|
E|-7-7-7-7-7-7-7-7-3-3-3-3-5-5-5-5|-7-7-7-7-7-7-7-7-3-3-3-3-2-|

Hit Me Hard...
e|----------------------------------------------------------------|
B|----------------------------------------------------------------|
G|----------------------------------------------------------------| (x2)
D|-9-9-9-9-9-9-9-9-7-7-7-7-7-7-7-7-5-5-5-5-5-5-5-5-4-4-4-4-5-5-7-7|
A|-9-9-9-9-9-9-9-9-7-7-7-7-7-7-7-7-5-5-5-5-5-5-5-5-4-4-4-4-5-5-7-7|
E|-7-7-7-7-7-7-7-7-5-5-5-5-5-5-5-5-3-3-3-3-3-3-3-3-2-2-2-2-3-3-5-5|

e|-------------------------12-11------------------|
B|-12-12-12-12-12-12-12-12-------12-10-10-12-12-12|
G|------------------------------------------------| 
D|------------------------------------------------|
A|------------------------------------------------|
E|------------------------------------------------|

I Want A...
e|--------------------------------|---------------------------------|
B|--------------------------------|---------------------------------|
G|--------------------------------|---------------------------------|
D|-9-9-9-9-9-9-9-9-5-5-5-5-7-7-7-7|-9-9-9-9-9-9-9-9-5-5-5-5-4-4-4-4-|
A|-9-9-9-9-9-9-9-9-5-5-5-5-7-7-7-7|-9-9-9-9-9-9-9-9-5-5-5-5-4-4-4-4-|
E|-7-7-7-7-7-7-7-7-3-3-3-3-5-5-5-5|-7-7-7-7-7-7-7-7-3-3-3-3-2-2-2-2-|

You Beat Me...
e|--------------------------------|---------------------------|
B|--------------------------------|---------------------------|
G|--------------------------------|---------------------------|
D|-9-9-9-9-9-9-9-9-5-5-5-5-7-7-7-7|-9-9-9-9-9-9-9-9-5-5-5-5-4-|
A|-9-9-9-9-9-9-9-9-5-5-5-5-7-7-7-7|-9-9-9-9-9-9-9-9-5-5-5-5-4-|
E|-7-7-7-7-7-7-7-7-3-3-3-3-5-5-5-5|-7-7-7-7-7-7-7-7-3-3-3-3-2-|

Hit Me Hard...
e|----------------------------------------------------------------|
B|----------------------------------------------------------------|
G|----------------------------------------------------------------| (x2)
D|-9-9-9-9-9-9-9-9-7-7-7-7-7-7-7-7-5-5-5-5-5-5-5-5-4-4-4-4-5-5-7-7|
A|-9-9-9-9-9-9-9-9-7-7-7-7-7-7-7-7-5-5-5-5-5-5-5-5-4-4-4-4-5-5-7-7|
E|-7-7-7-7-7-7-7-7-5-5-5-5-5-5-5-5-3-3-3-3-3-3-3-3-2-2-2-2-3-3-5-5|

      (Keyboard Solo)
e|---------------------------------|
B|---------------------------------|
G|---------------------------------| (x2)
D|-4-4-4-4-5-5-5-5-9-9-9-9-9-9-9-9-|
A|-4-4-4-4-5-5-5-5-9-9-9-9-9-9-9-9-|
E|-2-2-2-2-3-3-3-3-7-7-7-7-7-7-7-7-|


e|-------------------------10------------------------10|
B|-12-12-12-12-12-12-12-12---12-12-12-12-12-12-12-12---|
G|-----------------------------------------------------|
D|-----------------------------------------------------|
A|-----------------------------------------------------|
E|-----------------------------------------------------|

e|-------------------------10------------------------10|
B|-12-12-12-12-12-12-12-12---12-12-12-12-12-12-12-12---|
G|-----------------------------------------------------|
D|-----------------------------------------------------|
A|-----------------------------------------------------|
E|-----------------------------------------------------|

e|-------------------------12-11------------------|
B|-12-12-12-12-12-12-12-12-------12-10-10-12-14-12|
G|------------------------------------------------| (x3)
D|------------------------------------------------|
A|------------------------------------------------|
E|------------------------------------------------|

e|-------------------------12-11-----------------------------------------|
B|-12-12-12-12-12-12-12-12-------12-10-12-14-12-10-1212121212121212121212|
G|-----------------------------------------------------------------------| 
D|-----------------------------------------------------------------------|
A|-----------------------------------------------------------------------|
E|-----------------------------------------------------------------------|
Tap to rate this tab
 
# A B C D E F G H I J K L M N O P Q R S T U V W X Y Z