Song name
# A B C D E F G H I J K L M N O P Q R S T U V W X Y Z

The Soundtrack Of Our Lives - In Your Veins tab

In Your Veins - The Soundtrack of Our Lives
=================================================

Ackord i låten
D    xx0232
Em   022000
G    320033
C    x32010


Intro

e-----------------------------------------------------------------|
B-----------------------------------------------------------------|
G----------0----------------0--------------0----------------0-----|
D-------5----------------7-------------2----------------4---------|   x2
A---7---------7---(7)9---------0---3---------3---(3)5----------5--|
E-----------------------------------------------------------------|

Innan versen börjar gör dom en gitarr slinga(?)
som går så här

e-----------------------------------------------------------------|
B-----------------------------------------------------------------|
G---7---7----5---5----4---4----2----0-----------------------------|
D----------------------------------------4------------------------|
A-----------------------------------------------------------------|
E-----------------------------------------------------------------|


Vers

e-----------------------------------------------------------------|
B-----------------------------------------------------------------|
G----------0----------------0--------------0----------------0-----|
D-------5----------------7-------------2----------------4---------|   x2
A---7---------7---(7)9---------0---3---------3---(3)5----------5--|
E-----------------------------------------------------------------|
     Trees are fallning all around. Silent clouds are on the ground

      Someone whispers in your ear. This is what you like to hear.


Refräng

  C          G         Em   D    C
  I´m on yor side. And I am also blue.

  C                  G            Em        D       C
  Cause I am still a child. And I know that you are too.


Mellanspel

Gitarr 1 spelar versmelodin
Gitarr 2 spelar bara första tonen i varje ackors i versmelodin


Vers

e-----------------------------------------------------------------|
B-----------------------------------------------------------------|
G----------0----------------0--------------0----------------0-----|
D-------5----------------7-------------2----------------4---------|   x2
A---7---------7---(7)9---------0---3---------3---(3)5----------5--|
E-----------------------------------------------------------------|

     Pancakes spinning ´round the sun. Flat earth project has begun.

     Catwalk on suburban trains. Summer is inside your veins


Mellanspel

Gitarr 1 spelar versmelodin
Gitarr 2 spelar gitarr slingan innan refrängen börjar


Refräng

  C                G         Em   D    C
  And I am on your side. And I am also blue.

  C                  G            Em        D       C
  Cause I am still a child. And i know that you are too.

  C                G         Em   D      C
  Yes I am on your side. And I am all so blue.

  C                  G           Em      D          C
  And don´t you fell inside that I still believe in you

  Em      D          C
  I still believe in you...



  Em    C    Em    C    G   D   Em   D     x4

  Oh oooooo.....

man slutar låten med versmelodin

e-----------------------------------------------------------------|
B-----------------------------------------------------------------|
G----------0----------------0--------------0----------------0-----|
D-------5----------------7-------------2----------------4---------|  x2
A---7---------7---(7)9---------0---3---------3---(3)5----------5--|
E-----------------------------------------------------------------|


På refrängen spelar dom fingerspel men det går
lika bra att spelar ackorden rent.

SimonSvanlund@hotmail.com
Tap to rate this tab
# A B C D E F G H I J K L M N O P Q R S T U V W X Y Z