Song name
# A B C D E F G H I J K L M N O P Q R S T U V W X Y Z

The Speaks - Shine On Me tab

Song      : Shine On Me
Band      : The Speaks
Tabbed By : Brandon Philip Llapitan
E-mail    : brandon_rakista@yahoo.com
Cp no.    : 09167877318
Age       : 15 Yrs old
Tuning    : Standard


Note: Intro lang ang ginawa ko,la n akong tym s iba e!! para kay “ez david” to!! Salamat sa tiwala
      Mo sa akn tol!!hehe!! sa dinami dami ng mga gitarista s mundo, ako pa ang pinili m para itab 
      Fave mong song!!tnx!!hehe!!

e-3---------|-----------|---------|-------3p2---|
b-3-3-------|-3---5p3---|---3-----|---3------3--|
g-0-0---0---|--0-----0--|----2----|----2------0-|(1x)
d-0---0---2-|---0-----0-|---------|-0---0-------|
a-2-------3-|-----------|-0----0--|-------------|
E-3---------|-----------|---------|-------------|
Then..

e-----------|-----------|---------|-------3p2---|
b---3-------|-3---5p3---|---3-----|---3------3--|
g---0---0---|--0-----0--|----2----|----2------0-|(3x)
d-----0---2-|---0-----0-|---------|-0---0-------|
a---------3-|-----------|-0----0--|-------------|
E-3---------|-----------|---------|-------------|
Tap to rate this tab
 
# A B C D E F G H I J K L M N O P Q R S T U V W X Y Z