Song name
# A B C D E F G H I J K L M N O P Q R S T U V W X Y Z

The Speaks - Bizarre Love Triangle tab

Help us improve GuitareTab! Take a short survey!
The Redwalls
Bizarre Love Triangle
Tabbed by: Jerald RA-HAY-MOS

Chords throughout whole song is probably and most likely just Eb, F, Bb, Eb in that 
whole song...I think....I could be wrong....this is just a rough sketch.......ROCK!

e-------------------------------|
B-------------------------------|
G------------5----------------5-| x3
D---5--7--8------5---5--7--8----|
A-------------------------------|
E-------------------------------|
then
e-------------------------------|
B-------------------------------|
G------------5------------------|
D---5--7--8------5---5--7--8~---|
A-------------------------------|
E-------------------------------|


e--------------------------------------------------|
B--------------------------------------------------|
G--------------------------------------------10-10-|
D--8-8----8-8----8--10-10----8-8----8-8----8-------|
A------10-----10-----------------10-----10---------|
E--------------------------------------------------|

e--------------------------------------------------|
B--------------------------------------------------|
G--------------------------------------------------|
D--8-8----12-12-10-10-8-8----8-8----8-8----8-10-10-|
A------10------------------------10-----10---------|
E--------------------------------------------------|

just figure out how he does the other little changes and it should be good ^_^
Related for Bizarre Love Triangle tab