Guitaretab - guitar tabs
Song name
# A B C D E F G H I J K L M N O P Q R S T U V W X Y Z

The Speaks - Nowhere Fast tab

Highlighted       Show chord diagrams
Title      :	Nowhere Fast 
Artist     :	The Speaks
Album      :	This Is The Time

For any Comments and Suggestions:

Text Me:     09082360710/09156169501
Email Me:    jhenson_21@rocketmail.com
Friendster:  boybassista@yahoo.com


Tuning: Standard


Intro: C-G-Am-G


Verse 1: 

C-G-Am-G
A simple message contemplated

C-G-Am-G
The fragile defenses mended braked again 

C-G-Am-G
Iím starring at your desk just tell me then 

C-G-Am-G
Weíre running out of brail searching for higher grade 

Refrain:

F-G
Somewhere away from here 

Chorus:

   C        G        Am         G
Somewhere away from here , You donít where to go 

  C      G            Am        
You running away from here.

Verse 2:

C-G-Am-G
We never fell it will end in supervision 

C-G-Am-G
The shadows dreams are brought to pieces 

C-G-Am-G
Coz we are going to no where else
You are my everything

C-G-Am-G                            F-G
I guess nothing ever else because you are my everything 

Repeat Chorus:
[ Tab from: http://www.guitaretab.com/t/the-speaks/176459.html ]
   C                             G                    Am            
Day every feeling, the tears are streaming , heart stop beating

  G
my spirit winning  

  C           G      Am            G
I won't back know, I can't look back now

Adlib: C-G-Am-G

e-/16\14^------------------------------------------|
b--------17/19-17-12---12h14h12--17h16---17h16-----|
g-------------------------------------16-------16--|
D--------------------------------------------------|
A--------------------------------------------------|
E--------------------------------------------------|

e-----------------------------------------|
b-17h16-----17h16----17h16-----19h17-12~--|
g-------16--------16--------16------------|
D-----------------------------------------|
A-----------------------------------------|
E-----------------------------------------|


Chorus:

   C        G        Am         G
Somewhere away from here , You donít where to go 

  C      G            Am        
You running away from here.


Chorus:

   C        G        Am         G
Somewhere away from here , You donít where to go 

  C      G            Am        
You running away from here.


*If you want to Learn How to Read Tabs Just Text me: 09082360710/09156169501
 
www.ultimate-guitar.com

'=================='
/   RoCk En RoLL   \
'------------------'
Related for Nowhere Fast tab