Song name
# A B C D E F G H I J K L M N O P Q R S T U V W X Y Z

The Speaks - High tab

Hi IceBreakeR here. This is my solo in the song titled "High" by the the great band The Speaks.
Please Rate and enjoy.


e|----------------------------------------------------------------------------|
B|--------------------------------------------------------------8/10-8-7-8----|
G|---7-9-11-9-7-9-7-6-7---------------------7-6---7--7-9-11-9-7---------------|
D|----------------------9-11-9-7-5-4--4-5-7-----7-----------------------------|
A|----------------------------------------------------------------------------|
E|----------------------------------------------------------------------------|

e|-------------------------------10--9----------------------------------------|
B|-7-8-----7-8--------7-8-----10----------------------------------------------|
G|-----7h9-----7--7h9-----7---------------------------------------------------|
D|----------------------------------------------------------------------------|
A|----------------------------------------------------------------------------|
E|----------------------------------------------------------------------------|
Tap to rate this tab
 
# A B C D E F G H I J K L M N O P Q R S T U V W X Y Z