Guitaretab - guitar tabs
Song name
# A B C D E F G H I J K L M N O P Q R S T U V W X Y Z

The Speaks - Prelude To Life tab

                   "PRELUDE TO LIFE" THE SPEAKS
                       transcribed by: freon
                 visit me at: freongang_81@yahoo.com
                      freongang_08@yahoo.com
    

INTERLUDE:    X4
e|-----------------------------|
B|-----------------------------|
G|-------11--------11-10-------|
D|-----9---------9-------------|
A|---0---------9---------------|
E|-----------------------------|

              X4
e|-----------------------------|
B|-----------------------------|
G|------10/1110/11--10--------|
D|----9-----------------9------|
A|--0---------------------9----|
E|-----------------------------|

GUITAR SOLO:             X2
e|----------20-----18-----17-17h18-17-------------------|
B|---18-------------------------------18-----------18---|
G|---(let ring)---------------------------------17------|
D|------------------------------------------------------|
A|------------------------------------------------------|
E|------------------------------------------------------|
[ Tab from: http://www.guitaretab.com/t/the-speaks/65193.html ]
           X3
e|--20---18---17-17h18-17--------|
B|------------------------18-----|
G|-------------------------------|
D|-------------------------------|
A|-------------------------------|
E|-------------------------------|

e|--20---18---17-17h18-17----------------|
B|------------------------18-------------|
G|--------------------------------20--18-|
D|---------------------------------------|
A|---------------------------------------|
E|---------------------------------------|

           DO IT FAST
e|-----------------------------|
B|-------18/20-1820h1817h18--|
G|---17------------------------|
D|-----------------------------|
A|-----------------------------|
E|-----------------------------|

          X3
e|--20---18---17-17h18-17--------|
B|------------------------18-----|
G|-------------------------------|
D|-------------------------------|
A|-------------------------------|
E|-------------------------------|

e|--20---18---17-17h18-17----------------|
B|------------------------18-------------|
G|--------------------------------20--18-|
D|---------------------------------------|
A|---------------------------------------|
E|---------------------------------------|

           DO IT FAST
e|-----------------------------|
B|-------18/20-1820h1817h18--|
G|---17------------------------|
D|-----------------------------|
A|-----------------------------|
E|-----------------------------|
              <<<<>>>>

Related for Prelude To Life tab