Song name
# A B C D E F G H I J K L M N O P Q R S T U V W X Y Z

The Speaks - Feels Like Suicide tab

====================================================================================
                          FEELS LIKE SUICIDE==THE SPEAKS
====================================================================================

Tabbed By   : Brandon Philip Llapitan
Visit Me At : brandon_rakista@yahoo.com
Tuning      : Standard

Note: This song is very easy to figure out,10 mins ko lng ‘to kinapa!!hehehe!100 %!

Intro&Verse:
e-0-0-0-2----22222-0-|
b-0-0-0-2h3--33333-0-|
g-1-1-0-2----22222-0-|
d-2------------------|
a-2------------------|
E-0------------------|

Chorus:
e-------------------------------------|
b-------------------------------------|
g-------------------------------------|
d-4444444---3333333----2222222--------|
a-4444444---3333333----2222222--------|
E-2222222---1111111----0000000--------|
    Pm..      Pm..    |--Pm---|
Tap to rate this tab
 
# A B C D E F G H I J K L M N O P Q R S T U V W X Y Z