Song name
# A B C D E F G H I J K L M N O P Q R S T U V W X Y Z

The Speaks - Lifes A Joke Acoustic tab

The Speaks
Life’s a joke tab (acoustic)
Tabbed by Miguel Rigor 11-13-05

Pinoy Rock!! Yeah!!
I watched them play on MTV and saw some of the finger placements…
I think its 95% correct… lolz…
If you think its wrong, gimme a break, I’ just started playing the guitar last March 2005 (-_-“)
Just listen to the song for the rhythm… peace out!!
Dedicated to my one and only IRIS!!! (^_^)
Txt me for comments and suggestions… 09223621729…

intro
||---00------0------------------------------------------------||
||---00------0------------------------------------------------||
||-9-99-9-99-9-8-88-0h8--88-8---6-66-0h6--66-6-8-88-0h8--88-8-||  2x
||-9-99-9-99-9—9-99-9----99-9---7-77-7----77-7-9-99-9----99-9-||
||-7-77-7-77-7—9-99-9----99-9---7-77-7----77-7-9-99-9----99-9-||
||-----------7—7-77-7----77-7---5-55-5----55-5-7-77-7----77-7-||

||------------5-|
||------------5-|
||-xx-9-x-8-x-6-|
||-xx-9-x-8-x-7-| 
||-xx-7-x-6-x-7-|
||------------5-|


verse
||---00------0------------------------------------------------||
||---00------0------------------------------------------------||
||-9-99-9-99-9-8-88-0h8--88-8---6-66-0h6--66-6-8-88-0h8--88-8-||  2x
||-9-99-9-99-9—9-99-9----99-9---7-77-7----77-7-9-99-9----99-9-||
||-7-77-7-77-7—9-99-9----99-9---7-77-7----77-7-9-99-9----99-9-||
||-----------7—7-77-7----77-7---5-55-5----55-5-7-77-7----77-7-||

Clouds are out today…

interlude
||-0-00-0-00-0-0-00-0----00-0---0-00-0----00-0-0-00-0----00-0||
||-0-00-0-00-0-0-00-0----00-0---0-00-0----00-0-0-00-0----00-0||
||-9-99-9-99-9-8-88-0h8--88-8---6-66-0h6--66-6-8-88-0h8--88-8||  
||-9-99-9-99-9—9-99-9----99-9---7-77-7----77-7-9-99-9----99-9||
||-7-77-7-77-7—9-99-9----99-9---7-77-7----77-7-9-99-9----99-9||
||-----------7—7-77-7----77-7---5-55-5----55-5-7-77-7----77-7||

||-0-00-0-00-0-0-00-0----00-0---0-00-0----00-0----------------------||
||-0-00-0-00-0-0-00-0----00-0---0-00-0----00-0----------------------||
||-9-99-9-99-9-8-88-0h8--88-8---6-66-0h6--66-6—x-9-x-8-------------0||  
||-9-99-9-99-9—9-99-9----99-9---7-77-7----77-7—x-9-x-8-x-9-x-7-x-6-0||
||-7-77-7-77-7—9-99-9----99-9---7-77-7----77-7—x-7-x-6-x-9-x-7-x-6-0||
||-----------7—7-77-7----77-7---5-55-5----55-5---------x-7-x-5-x-4--||

verse
||---00------0------------------------------------------------||
||---00------0------------------------------------------------||
||-9-99-9-99-9-8-88-0h8--88-8---6-66-0h6--66-6-8-88-0h8--88-8-||  2x
||-9-99-9-99-9—9-99-9----99-9---7-77-7----77-7-9-99-9----99-9-||
||-7-77-7-77-7—9-99-9----99-9---7-77-7----77-7-9-99-9----99-9-||
||-----------7—7-77-7----77-7---5-55-5----55-5-7-77-7----77-7-||

you want to worship me…

chorus
||-0-00-0-00-0-0-00-0----00-0---0-00-0----00-0----------------------||
||-0-00-0-00-0-0-00-0----00-0---0-00-0----00-0----------------------||
||-9-99-9-99-9-8-88-0h8--88-8---6-66-0h6--66-6—x-9-x-8-------------0||  4x
||-9-99-9-99-9—9-99-9----99-9---7-77-7----77-7—x-9-x-8-x-9-x-7-x-6-0||
||-7-77-7-77-7—9-99-9----99-9---7-77-7----77-7—x-7-x-6-x-9-x-7-x-6-0||
||-----------7—7-77-7----77-7---5-55-5----55-5---------x-7-x-5-x-4--||
Thinkin’ about the days when I was young…
verse 
||---00------0------------------------------------------------||
||---00------0------------------------------------------------||
||-9-99-9-99-9-8-88-0h8--88-8---6-66-0h6--66-6-8-88-0h8--88-8-||  2x
||-9-99-9-99-9—9-99-9----99-9---7-77-7----77-7-9-99-9----99-9-||
||-7-77-7-77-7—9-99-9----99-9---7-77-7----77-7-9-99-9----99-9-||
||-----------7—7-77-7----77-7---5-55-5----55-5-7-77-7----77-7-||

||---00------0-------------------------------------------||
||---00------0-------------------------------------------||
||-9-99-9-99-9-8-88-0h8--88-8---6-66-0h6--66-6—-8x-------||
||-9-99-9-99-9—9-99-9----99-9---7-77-7----77-7—-9x(mute)-||
||-7-77-7-77-7—9-99-9----99-9---7-77-7----77-7—-9x-------||
||-----------7—7-77-7----77-7---5-55-5----55-5—-7x-------||
						   and now I’m gonna’ lose it!!..

chorus
||-0-00-0-00-0-0-00-0----00-0---0-00-0----00-0----------------------||
||-0-00-0-00-0-0-00-0----00-0---0-00-0----00-0----------------------||
||-9-99-9-99-9-8-88-0h8--88-8---6-66-0h6--66-6—x-9-x-8-------------0||  
||-9-99-9-99-9—9-99-9----99-9---7-77-7----77-7—x-9-x-8-x-9-x-7-x-6-0||
||-7-77-7-77-7—9-99-9----99-9---7-77-7----77-7—x-7-x-6-x-9-x-7-x-6-0||
||-----------7—7-77-7----77-7---5-55-5----55-5---------x-7-x-5-x-4--||
Thinkin’ about the days when I was young…

ending
||---------------------0-||
||---------------------8-||
||-9-x-8-------------0-9-||  
||-9-x-8-x-9-x-7-x-6-0-9-||
||-7-x-6-x-9-x-7-x-6-0-7-||
||-------x-7-x-5-x-4---0-||
	life’s a joke… ooh…





	
Tap to rate this tab
 
# A B C D E F G H I J K L M N O P Q R S T U V W X Y Z