Song name
# A B C D E F G H I J K L M N O P Q R S T U V W X Y Z

The Speaks - Bathe Inside The Fire tab

By:  ANDREW EVAN R. SARDILLO 
     IV-NEWTON 

Intro [distortion]

Lead guitar
Intro/verse

-|-----------------------------------------------2h3------------------|
-|---------0------------1-----------1--------3-------3----------------|
-|--------------------0---------2----------2---2----------------------|
-|-----2------------2---------2---2------0----------------------------|
-|---2---2--------3---------0-----------------------------------------|
-|-0------------------------------------------------------------------|
tuloy tuloy lang  . . pagpasok ng drums  papasok na din jan ang base
den 2loy2loy lang . . 

Refrain

-|-------------------------------------------------------------------|
-|--------1-------------1--------------1----------222----------------|
-|------0---0---------0---0----------0---0--------333----------------|
-|----2-------2-----2-------2------2-------2-------------------------|
-|--3-------------3--------------3-----------------------------------|
-|-------------------------------------------------------------------|

Chorus
Strumin nyu yan .Gets?
   Em       C        Am       D
-|--0--------0--------0-------3---------------------------------------|
-|--0--------1--------1-------2---------------------------------------|
-|--0--------0--------2-------3---------------------------------------|
-|--2--------2--------2-------0---------------------------------------|
-|--2--------3--------0-----------------------------------------------|
-|--0--------x--------------------------------------------------------|


Verse  )
Chorus >   lahat magkakamuka lang ng chords mula umpisa hangan ending
Bridge)
chorus)''''''''''
Tap to rate this tab
# A B C D E F G H I J K L M N O P Q R S T U V W X Y Z