Song name
# A B C D E F G H I J K L M N O P Q R S T U V W X Y Z

The Speed Of Sound In Seawater - Or So He Sphinx Acoustic tab

-------------------------------------------------------------------------------
          OR SO HE SPHINX (Intro) - The Speed of Sound in Seawater
-------------------------------------------------------------------------------
Tabbed by: makepr3tend
E-mail:makepr3tend@gmail.com

Tuning: Standard EADGBE

e|------------------6--|-----------------------------------------------------|
B|---4-----------------|---4-------------------------------------------------|
G|-----0h1-4/66--------|-----0h1-4/66-----5--4-/2-2-2------------------------|
D|---------------------|-----------------------------------------------------|
A|---------------------|-----------------------------------------------------|
E|-0-------4--6---7----|-0-------4--6---7----6----4--------------------------|

e|-----------------------------|---------------------------------------------|
B|---4--------------7///-4---2-|---2-----------------------------------------|
G|-----0h1-4/66----------------|-----0h1-4/66-\--4--1------------------------|
D|-----------------------------|---------------------------------------------|
A|-----------------------2---1-|---------------------------------------------|
E|-0-------4--6---0------------|-0-------4--6----4--0------------------------|



Pretty sure this is 80% correct for the intro leading up to when the second guitar comes in.
I learned it by ear so it might not be 100%.



************************************

| /   slide up
| \   slide down
| h   hammer-on
| p   pull-off
| ~   vibrato
| +   harmonic
| x   Mute note
| b   Bend
| pb  Pre-bend
| br  Bend release
| pbr Pre-bend release
| brb Bend release bend

************************************
Tap to rate this tab
# A B C D E F G H I J K L M N O P Q R S T U V W X Y Z