Song name
# A B C D E F G H I J K L M N O P Q R S T U V W X Y Z

The Spin Wires - I Love It I Dont Care tab

The Spin Wire's Cover of Icona Pop I Love it Tab

Verse

------------------------------------------------------|
------------------------------------------------------|
------------------------------------------------------|
------------------------------------------------------|
---5-5-5-5-5-5-5-5-5-5-5-5-5-5-5-5-5------------------|
---3-3-3-3-3-3-3-3-3-3-3-3-3-3-3-3-3------------------|


-------------------------------------------------------|
-------------------------------------------------------|
-------------------------------------------------------|
-------------------------------------------------------|
---5-5-5-5-5-5-5-5-5-5-5-5-5-5-5-5-5-------------------|
---3-3-3-3-3-3-3-3-3-3-3-3-3-3-3-3-3-------------------|
-------------------------------------------------------|


Chorus

------------------------------------------------------|
------------------------------------------------------|
------------------------------------------------------|
------------------------------------------------------|
---5-5-5-5-5-5-5-5-5-5-5-5-5-5-5-5-5------------------|
---3-3-3-3-3-3-3-3-3-3-3-3-3-3-3-3-3------------------|


-------------------------------------------------------|
-------------------------------------------------------|
-------------------------------------------------------|
-------------------------------------------------------|
---5-5-5-5-5-5-5-5-5-5-5-5-5-5-5-5-5-------------------|
---3-3-3-3-3-3-3-3-3-3-3-3-3-3-3-3-3-------------------|
-------------------------------------------------------|


Bridge


------------------------------------------------------|
------------------------------------------------------|
------------------------------------------------------|
---2---3----5---5-------------------------------------|
---0---1----3---3-------------------------------------|
------------------------------------------------------|


Rinse and Repeat!  Watch/listen to the guitarist in the video for the strumming pattern

http://www.youtube.com/watch?v=K81ULOW_-dM
Tap to rate this tab
# A B C D E F G H I J K L M N O P Q R S T U V W X Y Z