Song name
# A B C D E F G H I J K L M N O P Q R S T U V W X Y Z

The Spinto Band - Shake It Up tab

E|-----------------------------------------------------------------------|
B|-----------------------------------------------------------------------|
G|-------------11--9--9--9\8--8--6---------------------------------------|
D|--7h9h11h13-----------------------9--7/13--14--6--9--6h7--11--7/4--13v-|
A|-----------------------------------------------------------------------|
E|-----------------------------------------------------------------------|



E|------------------------------------------------------------------------|
B|------------------------------------------------------------------------|
G|--------------13--8---------------------------------8/9-----8/9---------|
D|-13/14/15/16--------9/7--6/11--7-6----------6----------7-------9--------|
A|-----------------------------------7-6----4---7-------------------------|
E|------------------------------------------------------------------------|
Tap to rate this tab
# A B C D E F G H I J K L M N O P Q R S T U V W X Y Z