Song name
# A B C D E F G H I J K L M N O P Q R S T U V W X Y Z

The Spookshow - I Can Kill You In A Heartbeat My Dear tab

I Can Kill You In A Heartbeat My Dear - The Spookshow

Intro
e|--------------|
b|--------------|
g|-----5-----7--|
d|--5--5--2--7--|
a|--5--3--2--5--|
E|--3-----0-----|

Verse
e|--------------|
b|--------------|
g|-----5--9--7--|
d|--5--5--9--7--|
a|--5--3--7--5--|
E|--3-----------|

Chorus
e|--------------------------|
b|--------------------------|
g|--5-----7-----7--5-----7--|
d|--5--5--7--2--7--5--5--7--|
a|--3--5--5--2--5--3--5--5--|
E|-----3-----0--------3-----|

End
e|-----|
b|-----|
g|-----|
d|--5--|
a|--5--|
E|--3--|
Tap to rate this tab
 
# A B C D E F G H I J K L M N O P Q R S T U V W X Y Z