Song name
# A B C D E F G H I J K L M N O P Q R S T U V W X Y Z

The Spookshow - A Bloody Knife On Your Bloody Body tab

A Bloody Knife On Your Bloody Body - The Spookshow

Intro
e|--------------|
b|--------------|
g|-----9--7--9--|
d|--7--9--7--9--|
a|--7--7--5--7--|
E|--5-----------|

Verse
e|--------------------------------------------------------------------------------------|
b|--------------------------------------------------------------------------------------|
g|--------------------------------------------------7--7--7--7--7--7--9--9--9--9--9--9--|
d|--7--7--7--7--7--7--7--7--7--7--7--7--7--7--9--7--7--7--7--7--7--7--9--9--9--9--9--9--|
a|--7--7--7--7--7--7--7--7--7--7--7--7--7--7--9--7--5--5--5--5--5--5--7--7--7--7--7--7--|
E|--5--5--5--5--5--5--5--5--5--5--5--5--5--5--7--5--------------------------------------|
Pm     .  .  .  .  .  .     .  .  .  .  .           .  .  .  .  .  .     .  .  .  .  .

Chorus
e|--------------|
b|--------------|
g|-----9--7--9--|
d|--7--9--7--9--|
a|--7--7--5--7--|
E|--5-----------|

End
e|-----|
b|-----|
g|-----|
d|--7--|
a|--7--|
E|--5--|
Tap to rate this tab
 
# A B C D E F G H I J K L M N O P Q R S T U V W X Y Z