Song name
# A B C D E F G H I J K L M N O P Q R S T U V W X Y Z

The Spookshow - Attack Me From Behind Tonight tab

----------------------------------------------------------------------
Attack Me From Behind Tonight - The Spookshow - Psychosexual Chapter I
----------------------------------------------------------------------

Intro/Verse/Chorus
e|---------------|
b|---------------|
g|-----10--5-----|
d|--7--10--5--5--|
a|--7---8--3--5--|
E|--5---------3--|
Tap to rate this tab
# A B C D E F G H I J K L M N O P Q R S T U V W X Y Z