Song name
# A B C D E F G H I J K L M N O P Q R S T U V W X Y Z

The Spookshow - Tonight Is The Night tab

Tonight Is The Night - The Spookshow - Psychosexual Chapter I

Verse
e|--------------|
b|--------------|
g|--------7--9--|
d|--7--4--7--9--|
a|--7--4--5--7--|
E|--5--2--------|

Chorus
e|-----------------|
b|-----------------|
g|--7--------------|
d|--7--7--6--4--2--|
a|--5--7--6--4--2--|
E|-----5--4--2--0--|
Tap to rate this tab
# A B C D E F G H I J K L M N O P Q R S T U V W X Y Z