Song name
# A B C D E F G H I J K L M N O P Q R S T U V W X Y Z

The Spookshow - I Dont Wanna But I Do tab

I Donít Wanna But I Do - The Spookshow - Psychosexual Chapter I

Intro/Verse(w/pm)
e|------------|
b|------------|
g|--9---------|
d|--9--11--9--|
a|--7--11--9--|
E|------9--7--|

Chorus
e|--------------|
b|--------------|
g|--9-----6-----|
d|--9--9--6--7--|
a|--7--9--4--7--|
E|-----7-----5--|
Tap to rate this tab
 
# A B C D E F G H I J K L M N O P Q R S T U V W X Y Z