Song name
# A B C D E F G H I J K L M N O P Q R S T U V W X Y Z

The Spookshow - A Good Day To Die On tab

A Good Day To Die On - The Spookshow - Psychosexual Chapter I

Intro/Chorus
e|-------------------|
b|-------------------|
g|--11--9------------|
d|--11--9--12--7--2--|
a|---9--7--12--7--2--|
E|---------10--5--0--|

Verse(w/pm)
e|----------------|
b|----------------|
g|--11------------|
d|--11--12--7--2--|
a|---9--12--7--2--|
E|------10--5--0--|

Tap to rate this tab
 
# A B C D E F G H I J K L M N O P Q R S T U V W X Y Z