Song name
# A B C D E F G H I J K L M N O P Q R S T U V W X Y Z

The Spookshow - Ghoulsnight tab

Ghoulsnight - The Spookshow - Psychosexual Chapter I

Intro
e|-------------------------------------------|
b|-------------------------------------------|
g|-------------------------------------------|
d|-------------------------------------------|
a|--6h7-7-7-7-6h7-7-7-7----------------------|
E|----------------------4h5-5-5-5-6h7-7-7-7--|

Verse(w/pm)/Chorus
e|-----------|
b|-----------|
g|--9--------|
d|--9--7--9--|
a|--7--7--9--|
E|-----5--7--|
Tap to rate this tab
 
# A B C D E F G H I J K L M N O P Q R S T U V W X Y Z