Song name
# A B C D E F G H I J K L M N O P Q R S T U V W X Y Z

The Spookshow - Lord Take Away The Sorrow tab

Lord Take Away The Sorrow - The Spookshow - Psychosexual Chapter I

Intro/Verse
e|--------------|
b|--------------|
g|-----7--9--7--|
d|--5--7--9--7--|
a|--5--5--7--5--|
E|--3-----------|

Chorus
e|--------------|
b|--------------|
g|--5-----7-----|
d|--5--5--7--5--|
a|--3--5--5--5--|
E|-----3-----3--|
Tap to rate this tab
# A B C D E F G H I J K L M N O P Q R S T U V W X Y Z