Song name
# A B C D E F G H I J K L M N O P Q R S T U V W X Y Z

The Spookshow - I Sold Your Soul To The Devil tab

I Sold Your Soul To The Devil - The Spookshow - Psychosexual Chapter I

Intro/Verse(w/pm)
e|--------------|
b|--------------|
g|-----9--7--9--|
d|--7--9--7--9--|
a|--7--7--5--7--|
E|--5-----------|

Chorus
e|--------------|
b|--------------|
g|--7-----------|
d|--7--7--2--7--|
a|--5--7--2--7--|
E|-----5--0--5--|
Tap to rate this tab
# A B C D E F G H I J K L M N O P Q R S T U V W X Y Z