Song name
# A B C D E F G H I J K L M N O P Q R S T U V W X Y Z

The Spookshow - Stab Me tab

Stab Me - The Spookshow - Psychosexual Chapter I

Intro
e|------------------------------------------|
b|------------------------------------------|
g|------------------------------------------|
d|------------------------------------------|
a|------------------------------------------|
D|--6h7-7-7-7-6h7-7-7-7-0-0-0-0-0-0h2-2-2-2-|

Verse(w/pm)/Chorus
e|-----------|
b|-----------|
g|-----7--9--|
d|--7--7--9--|
a|--7--5--7--|
D|--7--------|
Tap to rate this tab
# A B C D E F G H I J K L M N O P Q R S T U V W X Y Z