Song name
# A B C D E F G H I J K L M N O P Q R S T U V W X Y Z

The Spookshow - With My Own Hands tab

With My Own Hands - The Spookshow - Psychosexual Chapter I

Intro/Outro
e|--------------------|
b|--------------------|
g|--5--7--------5--7--|
d|--5--7--5--2--5--7--|
a|--3--5--5--2--3--5--|
E|--------3--0--------|

Verse(pm)
e|--------------|
b|--------------|
g|-----5--7-----|
d|--5--5--7--2--|
a|--5--3--5--2--|
E|--3--------0--|

Chorus
e|--------------|
b|--------------|
g|--5--7--------|
d|--5--7--5--2--|
a|--3--5--5--2--|
E|--------3--0--|

End
e|-----|
b|-----|
g|-----|
d|--5--|
a|--5--|
E|--3--|
Tap to rate this tab
# A B C D E F G H I J K L M N O P Q R S T U V W X Y Z