Song name
# A B C D E F G H I J K L M N O P Q R S T U V W X Y Z

The Spookshow - I See Dead People tab

I See Dead People - The Spookshow - Psychosexual Chapter I

(w/pm)
e|--------|
b|--------|
g|--5-----|
d|--5--5--|
a|--3--5--|
E|-----3--|

“Dead girl walking...” (Part 1)
e|--2--2-----------0--0-----------3--3-----------2--3--2--2--0--|
b|--3-----3--------2-----2--------3-----3--------3--3--3--3--3--|
g|--2--------2-----2--------2-----0--------0-----2--2--2--2--2--|
d|--0-----------0--2-----------2--0-----------0--0--0--0--0--0--|
a|-----------------0--------------2-----------------------------|
E|--------------------------------3-----------------------------|

“Dead go walking...” (Part 2)
e|--0--X--2--X--|
b|--2--X--3--X--|
g|--2--X--2--X--|
d|--2--X--0--X--|
a|--0--X-----X--|
E|-----X-----X--|
Tap to rate this tab
 
# A B C D E F G H I J K L M N O P Q R S T U V W X Y Z