Song name
# A B C D E F G H I J K L M N O P Q R S T U V W X Y Z

The Spring Standards - Reply tab

A great tune from the Spring Standard's first EP "No One Will Know"

Chords
    G  C add 9  G/B       Em    C
E|--3-----3------3--------0----0--------|
B|--3-----3------3--------0----1--------|
G|--0-----0------0--------0----0--------|
D|--0-----2------0--------0----2--------|
A|--2-----3------2--------2----3--------|
E|--3-----0------0--------2----0--------|

Intro/Preverse: (Listen to the song for strumming and timing)

Part 1
E|--3--3--3--3--3--3--3--3--|
B|--3--3--3--3--3--3--3--3--|
G|--0--0--0--0--0--0--0--0--|
D|--0--0--0--0--2--2--0--0--|
A|--2--2--2--2--3--3--2--2--|
E|--3--3--3--3--0--0--0--0--|

Part 2
(Note: When picking the individual notes you can keep your 2 fingers in the A 7 sus4 
position and strum)
E|--3--3--3--3----------------|
B|--3--3--3--3----------------|
G|--0--0--0--0----------------|
D|--0--0--0--0--2--0-------0--|
A|--2--2--2--2--------2h3-----|
E|--3--3--3--3----------------|

Verse:
G                  G/B
I lost my bike and I lost my car
G                            Cadd9   G/B
But my feet can get me to the nearest bar
G         Cadd9    G/B  (Intro Part 2)
With you, baby with you

(Note: the last line of the verse is the same as the intro/preverse)

Chorus:
Em                      G
The windowpane makes a show of rain
C                      G
Splitting paths and joining up again
Em                    G
We can sit and cry 'til the oceans dry
C                      G
Or we can shout and wait for a reply

Enjoy!
Tap to rate this tab
# A B C D E F G H I J K L M N O P Q R S T U V W X Y Z