Song name
# A B C D E F G H I J K L M N O P Q R S T U V W X Y Z

The Standells - Theres A Storm Coming tab

really fun and easy song from the album dirty water(1966)


   "There is a Storm A Coming" by the Standells


|-----------|---------------|-----------|---------------|
|-----------|---------------|-----------|---------------|
|-----------|---------------|-----------|---------------|
|--------2--|--0-----0---2--|--------2--|--0-----0---2--|
|--0--4-----|-----4---------|--0--4-----|-----4---------|
|-----------|---------------|-----------|---------------|

theres a storm coming and its raining in my heart
|-----------|---------------|-----------|---------------|
|-----------|---------------|-----------|---------------|
|-----------|---------------|-----------|---------------|
|--------2--|--0-----0---2--|--------2--|--0-----0---2--|
|--0--4-----|-----4---------|--0--4-----|-----4---------|
|-----------|---------------|-----------|---------------|

theres a storm coming and its tearing me a
|-----------|---------------|-----------|---------------|
|-----------|---------------|-----------|---------------|
|-----------|---------------|-----------|---------------|
|--------2--|--0-----0---2--|--------2--|--0-----0---2--|
|--0--4-----|-----4---------|--0--4-----|-----4---------|
|-----------|---------------|-----------|---------------|

paaaart
|--0~~~~~~-|------------|
|--0~~~~~~-|------------|
|--1~~~~~~-|------------|
|--2~~~~~~-|------------|
|--2~~~~~~-|------------|
|--0~~~~~~-|-0-0-1-2~~~-|

what good would it do
|--2~~~--|-------|
|--2~~~--|-------|
|--3~~~--|-------|
|--4~~~--|-------|
|--4~~~--|-------|
|--2~~~--|-2-1-0-|


for me to put my love to you
|--2~~~~--|
|--3~~~~--|
|--2~~~~--|
|--0~~~~--|
|--0~~~~--|
|---------|
 
theres a storm coming 
|-----------|---------------|----|
|-----------|---------------|--2-|
|-----------|---------------|--2-|
|--------2--|--0-----0---2--|--2-|
|--0--4-----|-----4---------|--0-|
|-----------|---------------|----|

and its raining in my heart

|-----------|---------------|-----------|---------------|
|-----------|---------------|-----------|---------------|
|-----------|---------------|-----------|---------------|
|--------2--|--0-----0---2--|--------2--|--0-----0---2--|
|--0--4-----|-----4---------|--0--4-----|-----4---------|
|-----------|---------------|-----------|---------------|

and thats all really the chorus and verse riff is here
just repeat this with the last verse and your done very fun song
-bERT!
Tap to rate this tab
# A B C D E F G H I J K L M N O P Q R S T U V W X Y Z