Song name
# A B C D E F G H I J K L M N O P Q R S T U V W X Y Z

The Staves - Mexico tab

Mexico - The Staves

Tab By Ipsaous

http://thestaves.com

Original Song: http://www.youtube.com/watch?v=hYV0Wp0MdZ4

Check my guitar lessons : http://www.youtube.com/user/ipsaous


Capo 3

Tuning DADGBe


Intro + 1 st Verse

e||-------------------------------------------|
B||-------------------------------------------|
G||*------------------------------------------|
D||*------------------------------------------|
A||-(0)---5---5---5----5-----4---4---4---4----|
D||-----0---0---0---0-----0----0---0---0------|

e|------------------------------------------|
B|------------------------------------------|
G|------------------------------------------|
D|------------------------------------------|
A|----7---7---7---7----5---5---5---5--------|
D|--0---0---0---0----0---0---0---0----------|


e|-------------------------------------|
B|-------------------------------------|
G|-------------------------------------|
D|-------------------------------------|
A|-----2---2---2---2---0---0---0---0---|
D|---0---0---0---0---0---0---0---0-----|

e|-------------------------------------||
B|-------------------------------------||
G|------------------------------------*||
D|------------------------------------*|| X 3
A|-----5---5---5---5---5---5---5---5---||
D|---5---5---5---5---5---5---5---5-----||


Pre chorus

e|------------------------------------|
B|------------------------------------|
G|------------------------------------|
D|------------------------------------|
A|---5---5---5---5---5---5----9----9--|
D|-0---0---0---0---0---0---0----0-----|

e|------------------------------------|
B|------------------------------------|
G|------------------------------------|
D|------------------------------------|
A|---5---5---5---5---5---5---5---5----|
D|-0---0---0---0---0---0---0---0------|

Chorus

e||------------------------------------|
B||------------------------------------|
G||*-----------------------------------|
D||*---0---0---0---0---0---0---0---0---|
A||--3---3---3---3---2---2---2---2-----|
D||------------------------------------|

e|-----------------------------------||
B|-----------------------------------||
G|----------------------------------*||
D|---0---0---0---0---2---2---0---0--*||
A|-0---0---0---0---0---0---0---0-----||
D|-----------------------------------||

e|------------------------------------|
B|------------------------------------|
G|------------------------------------|
D|---0---0---0---0---0---0---0---0----|
A|--3---3---3---3---2---2---2---2-----|
D|------------------------------------|

e|----------------------------------|
B|----------------------------------|
G|----------------------------------|
D|----------------------------------|
A|---9---9---7---7---5---5---4---4--|
D|-0---0---0---0---0---0---0---0----|

e|------------------------------------|
B|------------------------------------|
G|------------------------------------|
D|------------------------------------|
A|---2---2---2---2---0---0---0---0----|
D|-0---0---0---0---0---0---0---0------|

2Nd Verse

e||-------------------------------------------|
B||-------------------------------------------|
G||*------------------------------------------|
D||*------------------------------------------|
A||-(0)---5---5---5----5-----4---4---4---4----|
D||-----0---0---0---0-----0----0---0---0------|

e|------------------------------------------|
B|------------------------------------------|
G|------------------------------------------|
D|------------------------------------------|
A|----7---7---7---7----5---5---5---5--------|
D|--0---0---0---0----0---0---0---0----------|


e|-------------------------------------|
B|-------------------------------------|
G|-------------------------------------|
D|-------------------------------------|
A|-----2---2---2---2---0---0---0---0---|
D|---0---0---0---0---0---0---0---0-----|

e|-------------------------------------||
B|-------------------------------------||
G|------------------------------------*||
D|------------------------------------*|| X 3
A|-----5---5---5---5---5---5---5---5---||
D|---5---5---5---5---5---5---5---5-----||

Chorus

e||------------------------------------|
B||------------------------------------|
G||*-----------------------------------|
D||*---0---0---0---0---0---0---0---0---|
A||--3---3---3---3---2---2---2---2-----|
D||------------------------------------|

e|-----------------------------------||
B|-----------------------------------||
G|----------------------------------*||
D|---0---0---0---0---2---2---0---0--*||
A|-0---0---0---0---0---0---0---0-----||
D|-----------------------------------||

e|------------------------------------|
B|------------------------------------|
G|------------------------------------|
D|---0---0---0---0---0---0---0---0----|
A|--3---3---3---3---2---2---2---2-----|
D|------------------------------------|

e|----------------------------------|
B|----------------------------------|
G|----------------------------------|
D|----------------------------------|
A|---9---9---7---7---5---5---4---4--|
D|-0---0---0---0---0---0---0---0----|

e|------------------------------------|
B|------------------------------------|
G|------------------------------------|
D|------------------------------------|
A|---2---2---2---2---0---0---0---0----|
D|-0---0---0---0---0---0---0---0------|


Bridge

e|--------------------------------------|
B|--------------------------------------|
G|--------------------------------------|
D|--------------------------------------|
A|---5---5---5---5---5---5---9---9------|
D|-0---0---0---0---0---0---0---0--------|

e|-----------------------------------------|
B|-----------------------------------------|
G|-----------------------------------------|
D|-----------------------------------------|
A|---10---10---9---9---10---10---10---10---|
D|-0----0----0---0---0----0----0----0------|

e|-------------------------------------------|
B|-------------------------------------------|
G|-------------------------------------------|
D|-------------------------------------------|
A|---12---12---12---12---10---10---10---10---|
D|-0----0----0----0----0----0----0----0------|

e|------------------------------------|
B|------------------------------------|
G|------------------------------------|
D|------------------------------------|
A|----9---9---9---9---7---7---7---7---|
D|--0---0---0---0---0---0---0---0-----|

3rd Verse

e|--------------------------------------------|
B|--------------------------------------------|
G|--------------------------------------------|
D|--------------------------------------------|
A|-(0)---5---5---5----5-----4---4---4---4-----|
D|-----0---0---0---0-----0----0---0---0-------|

e|------------------------------------------|
B|------------------------------------------|
G|------------------------------------------|
D|------------------------------------------|
A|----7---7---7---7----5---5---5---5--------|
D|--0---0---0---0----0---0---0---0----------|


e|-------------------------------------|
B|-------------------------------------|
G|-------------------------------------|
D|-------------------------------------|
A|-----2---2---2---2---0---0---0---0---|
D|---0---0---0---0---0---0---0---0-----|

e|------------------------------------|
B|------------------------------------|
G|------------------------------------|
D|------------------------------------|
A|-----5---5---5---5---5---5---5---5--|
D|---5---5---5---5---5---5---5---5----|

Chorus

e||------------------------------------|
B||------------------------------------|
G||*-----------------------------------|
D||*---0---0---0---0---0---0---0---0---|
A||--3---3---3---3---2---2---2---2-----|
D||------------------------------------|

e|-----------------------------------||
B|-----------------------------------||
G|----------------------------------*||
D|---0---0---0---0---2---2---0---0--*||
A|-0---0---0---0---0---0---0---0-----||
D|-----------------------------------||

e|------------------------------------|
B|------------------------------------|
G|------------------------------------|
D|---0---0---0---0---0---0---0---0----|
A|--3---3---3---3---2---2---2---2-----|
D|------------------------------------|

e|----------------------------------|
B|----------------------------------|
G|----------------------------------|
D|----------------------------------|
A|---9---9---7---7---5---5---4---4--|
D|-0---0---0---0---0---0---0---0----|

e|------------------------------------|
B|------------------------------------|
G|------------------------------------|
D|------------------------------------|
A|---2---2---2---2---0---0---0---0----|
D|-0---0---0---0---0---0---0---0------|


Then :

e|------------------------------------------|
B|------------------------------------------|
G|------------------------------------------|
D|------------------------------------------|
A|----5---5---5----5-----4---4---4---4------|
D|--0---0---0---0-----0----0---0---0--------|

e|------------------------------------------|
B|------------------------------------------|
G|------------------------------------------|
D|------------------------------------------|
A|----7---7---7---7----5---5---5---5--------|
D|--0---0---0---0----0---0---0---0----------|

4Th Verse

e|--------------------------------------------|
B|--------------------------------------------|
G|--------------------------------------------|
D|--------------------------------------------|
A|-(0)---5---5---5----5-----4---4---4---4-----|
D|-----0---0---0---0-----0----0---0---0-------|

e|------------------------------------------|
B|------------------------------------------|
G|------------------------------------------|
D|------------------------------------------|
A|----7---7---7---7----5---5---5---5--------|
D|--0---0---0---0----0---0---0---0----------|


e|-------------------------------------|
B|-------------------------------------|
G|-------------------------------------|
D|-------------------------------------|
A|-----2---2---2---2---0---0---0---0---|
D|---0---0---0---0---0---0---0---0-----|

e|------------------------------------|
B|------------------------------------|
G|------------------------------------|
D|------------------------------------|
A|-----5---5---5---5---5---5---5---5--|
D|---5---5---5---5---5---5---5---5----|

That's all !! I tried to put all the small variations, so it's a long long tab ;).

Enjoy !
Tap to rate this tab
# A B C D E F G H I J K L M N O P Q R S T U V W X Y Z