Song name
# A B C D E F G H I J K L M N O P Q R S T U V W X Y Z

The Staves - The Motherlode tab

Capo 4

Tuning DADF#AD


Intro + 1 st Verse

d||-----------------------------------------------------------------------|
A||---------0-----0-------------------0-------0---------------------------|
F#|---------------------0-----0---------------------0-----0-----0-----0---|
D||-------0-----0-----0-----0-------0-------0-----0-----0-----0-----0-----|
A||-0-2-3-----2-----------------0h3-----0h2-------------------------------|
D||-----------------0-----0---------------------0-----0-----0-----0-------|

d|------------------------------------------------------------------------|
A|-------------0-----0----------------------------------------------------|
F#|-------0------------------0------0-----0-----0-----0-------------------|  
D|-----0-----0-----0------0------0-----0-----0-----0----------------------| X 3
A|-0h2-----2-----2------2-------------------------------------------------|
D|-----------------------------0-----0-----0-----0------------------------|

d|--------------------------------------------------------------------------|
A|-------0-------0----------------------0-------0------------------------0--|
F#|---------------------0------0-----------------------0-----0-----0-----0--|  
D|-----0-------0-----0------0---------0-------0-----0-----0-----0-----0-----| 
A|-0h3-----0h2--------------------0h3-----0h2-------------------------------|
D|-----------------0------0-----------------------0-----0-----0-----0-------|
Tap to rate this tab
# A B C D E F G H I J K L M N O P Q R S T U V W X Y Z