The Steeldrivers - Where Rainbows Never Die tab

Capo 2nd fret

Standard Tuning: EADGBe

This is played all by itself for the Intro and then throughout w/ accompaniment 

Listen to the song for timing and these notes should sound just about right
It might need some corrections  if so let me know @ jhopkin8@kent.edu


|-------------------------|-------------------------|
|----3-----------3--------|----3-----------3--------|
|-------2-----2-----2-----|-------2-----2-----2-----|
|-0-----------------------|-------------------------|
|----------0--------------|-2-----------------------|
|-------------------------|----------3--------------|

                                              Just repeat both throughout
   
|-------------------------|----------------3--------|
|----3-----------3--------|----3-----------3--------|
|-------2-----2-----2-----|-------2-----2-----2-----|
|-0-----------------------|-------------------------|
|----------0--------------|-2-----------------------|
|-------------------------|----------3--------------|

And that should be it
Hope it works out for you
Tap to rate this tab
 
# A B C D E F G H I J K L M N O P Q R S T U V W X Y Z