Song name
# A B C D E F G H I J K L M N O P Q R S T U V W X Y Z

The Steepwater Band - Dance Me A Number tab

Hey, great song, so I decided to tab it out for everyone. The other tab is horrible. Open G? 
Anyways here it is, and a link to my video for the structure.
https://www.youtube.com/watch?v=4tKpb4vWuHI

Standard Tuning.
Verse/Intro/Part 1

e|-3-3-3---------------|----|
B|-3-3-3---------------|-8-7|
G|-3-3-3------2-2h3p3-2|-8-7|
D|-5-5-5-5-4-5-------5-|-8-7|
A|---------------------|-6-5|
E|---------------------|----|

Bridge/Chorus

e|-----------------------------|
B|---------------------------15|
G|---------------------------15|
D|-5-4-5-7-5-7-8-7-8-10-8-10-12|
A|---------------------------10|
E|-----------------------------|

Interlude/Solo

e|--------------------------------------------------------------------------|
B|----------1h3p1-----1--------------------------------1h3p1-----1----------|
G|---5-3-2-3-----3p2-3-----------2h3p2----------5-3-2-3-----3p2-3---7-8-7---|
D|------------------------5-5-4-5-----5p4-5-0-----------------------------8-|
A|-3-3----------------------------------------3-3------------------5-6-5----|
E|----------------------3-3----------------------------------------------6--|

Cont.

e|-----|
B|-----|
G|-----|
D|-8-7-|
A|-8-7-|
E|-6-5-|

That's the whole song. Like I said, watch the video for the structure. 
**Note: I have combined some Bass/Guitar parts on the Interlude to make it playable for one person. 
Just take out the octave accent notes to play it with a band. 
Also the Gm7 in the bridge is also a combination of Bass/Guitar. 
Just take out the 15(7th Note) if you're playing with a band.

There you go. Happy shredding.
Tap to rate this tab
# A B C D E F G H I J K L M N O P Q R S T U V W X Y Z