Song name
# A B C D E F G H I J K L M N O P Q R S T U V W X Y Z

The Stone Foxes - Im A King Bee tab

Stone Foxes-King Bee

Hey guys this is my first tab so take it easy with the hate comments XD. I was looking
through the tabs for King Bee and I couldn't find one so I decided to come up with my
own. This tab is in the key of F (should help with the solo's). I run a blues type 
distortion and it sounds spot on.

h-hammer on
~hold note

Intro

e|------------------------||
B|------------------------||
G|------------------------||
D|3--3--3--3--3--3--3--3--||
A|------------------------||
E|------------------------||

e|----------------------------||
B|----------------------------||
G|----------------------------||
D|1h3--3--3--3--3--3--3--3--3-||  x8
A|----------------------------||
E|----------------------------||

e|------------------------||
B|------------------------||
G|------------------------||
D|-------6h8--------------||
A|-------6h8--------------||
E|------------------------||


e|------------------------||------------------------||
B|------------------------||------------------------||
G|--------10--------------||--------10--------------||
D|3--3----10----6h8-------||3--3----10----6h8-------||
A|3--3----8-----6h8-------||3--3----8-----6h8-------||
E|1--1--------------------||1--1--------------------||
                                              well Im a

e|------------------------|
B|------------------------|
G|------------------------|
D|3~~~~~~~~~~~~~~~~~~~~~~~|
A|3~~~~~~~~~~~~~~~~~~~~~~~|
E|1~~~~~~~~~~~~~~~~~~~~~~~|
  king bee, buzzing round your hive


e|------------------------||------------------------||
B|------------------------||------------------------||
G|--------10--------------||--------10--------------||
D|3--3----10----6h8-------||3--3----10----6h8-------||
A|3--3----8-----6h8-------||3--3----8-----6h8-------||
E|1--1--------------------||1--1--------------------||
-repeat this 3 times until this part

e|-------------------------||
B|-------------------------||
G|5--5--5--5--5--5--5--5--3||
D|5--5--5--5--5--5--5--5--3||
A|3--3--3--3--3--3--3--3--1||
E|-------------------------||
Yeah I can make honey, if you let me come inside

e|------------------------||------------------------||
B|------------------------||------------------------||
G|--------10--------------||--------10---3---5------||
D|3--3----10----6h8-------||3--3----10---3---5------||
A|3--3----8-----6h8-------||3--3----8----1---3------||
E|1--1--------------------||1--1--------------------||
                                               Well im a

e|------------------------|
B|------------------------|
G|------------------------|
D|3~~~~~~~~~~~~~~~~~~~~~~~|
A|3~~~~~~~~~~~~~~~~~~~~~~~|
E|1~~~~~~~~~~~~~~~~~~~~~~~|
  king bee, I want you to be my queen

-that's it for the verses. I play the rhythm guitar for the solo like this

e|------------------------|
B|------------------------|
G|------------------------|
D|3--3--3--3--3--3--8h10--| x7
A|3--3--3--3--3--3--8h10--|
E|1--1--1--1--1--1--------|

e|------------------------|
B|------------------------|
G|------------5--8--------|
D|3--3--3--3--5--8--3~~~~~|
A|3--3--3--3--3--6--3~~~~~|
E|1--1--1--1--------1~~~~~|
-then right back into the verse and continue the verse chord progression until the end
of the song.

I'm not good enough to map out the solo but remember it's in the key of F if you want to
do your own. please rate it and tell me what you think!
Tap to rate this tab
 
# A B C D E F G H I J K L M N O P Q R S T U V W X Y Z