Song name
# A B C D E F G H I J K L M N O P Q R S T U V W X Y Z

The Stone Foxes - Im A King Bee tab

Fairly easy song to play.

Solo isnt to hard, so thought id tab that with the rest of the song.

If you wish to see how its played, check out my cover on Youtube:

http://www.youtube.com/watch?v=zNQIcqh1_iw&feature=gp-n-y

Enjoy!

The song is in F Standard, capo the first fret or tune up a semitone.

TAB IS RELATIVE TO CAPO/F STANDARD

I will include times per section but if you get stuck, just listen to the song.

s^ = Slide up
h = Hammer on
p = Pull Off
b = Bend
sb = Slight bend

Intro

E------------------------------------------------------|
B------------------------------------------------------|
G------------------------------------------------------|
D--0h2-2-2-2-2-2-2-2p0h2-2-2-2-2-2-2-2p0  Repeat this--| x7
A------------------------------------------------------|
E------------------------------------------------------|

Verse

E---------------------------------------|
B---------------------------------------|
G---------------------------------------|
D---------------------------------------| Hold the chord at the end of the
A-------------------------------------2-| the riff then repeat x3 until...
E--0-0s^12--0-3-5-3-0-0s^12-0-3-5-3-0-0-|

I can make honey...

E-----------------------------------------------------|
B-----------------------------------------------------|
G-----------------------------------------------------|
D-----------------------------------------------------|
A--------------------------------------2------------2-|
E--7-7-7-7-7-7-7-7-5sb-0-0s^12-0-3-5-3-0-0s^12-7-10-0-|

Yeah im a king bee...

E--0-------------------------------------------------|
B--0-------------------------------------------------|
G--1-------------------------------------------------|
D--2-------------------------------------------------|
A--2-------------------------------------------------|
E--0-------------------------------------------------|

With this part the guitarist strums a full chord
but downstrokes the bottom 3 strings, then upstrokes the top 3.
Listen to the song and you'll hear it.
Play this, then the verse riff, there's a couple of little riffs
behind the chord section too, but you can just noodle
in an F blues scale and it'll sound cool.

After that play this again:

E----------------------------------------------------|
B----------------------------------------------------|
G----------------------------------------------------|
D----------------------------------------------------|
A---------------------------------------2------------|
E--7-7-7-7-7-7-7-7-10sb-0-0s^12-0-3-5-3-0-0s^12-7-10-|

Then solo:

E--7-7-7---7-7----------0---------0-0-0-0-0--------3h5-5bp3--5-5bp3-5-5-5sb-3-|
B--8-8-8---8-8----------0---------3-3-3-3-3s^5-5-3h5--------5------5----------|
G--------9-----10p9h10--0-2bp0-s^4-4------------------------------------------|
D-----------------------------------------------------------------------------|
A-----------------------------------------------------------------------------|
E-----------------------------------------------------------------------------|

E---3-------10--10--10-----------------------------------------------------|
B--5-5-5s^-12--12--12--12-12-----------------------------------------------|
G--------------------------------------------------------------------------|
D--------------------------------------------------------------------------|
A-------------------------------s^12b------------------------s^12b---------|
E---------------------------0-0------3-5-3-0-0s^12--3-5-3-0-0------0-3-5-3-|

E-----------------|
B-----------------|
G-----------------|
D-----------------|
A---------------2-|
E--0-0s^12-7-10-0-|

Bridge

E------------------------------------------------------------------|
B--0-5p3h5-5-5-5-5-5-5-5p3h5-5-5-5-5-5-5---------------------------|
G------------------------------------------------------------------|
D--------------------------------------- Repeat this mini riff x12-|
A------------------------------------------------------------------|
E------------------------------------------------------------------|

Then play the verse riff 4 more times and thats it.

Thanks for viewing the tab, if you have any questions feel free to ask.

Feedback is also more than welcome so if you spot any mistakes/possible improvements, 
please let me know.

Cheers.

Dont forget to watch my cover on Youtube too!
Tap to rate this tab
# A B C D E F G H I J K L M N O P Q R S T U V W X Y Z