Song name
# A B C D E F G H I J K L M N O P Q R S T U V W X Y Z

The Stooges - I Need Somebody tab

Artist: The Stooges 
Record: Raw Power
Guitarist: James Williamson

Just the groundwork. Figure out the leads yourself.

Standard Tuning: E A D G B e

 Intro

 e|------------------------------|      
 B|------------------------------|       
 G|------------------------------|         
 D|------------------------------|   
 A|-5--5-5-4-3--8--8-8--5--------|         
 E|-3--3-3-3-3--6--6-6--3--------|

  Verse

 e|-----------------------------------------------------------|      
 B|-----------------------------------------------------------|       
 G|---------------------------7-6--6----------5---------------|         
 D|----------------------------------5----------4----4--------|   
 A|-5--5-3-4-5--5--5--3--5--6----6-----------5-----5---5------|         
 E|-3--3-3-3-3--6--3--1--3------------------------------------|

  Chorus

 e|------------------------------------------|      
 B|------------------------------------------|       
 G|------------------------------------------|         
 D|---------------------5--5-5--5-8-8-8-7-7-7|   
 A|-5--5-5--5-3--3-3--3-3--3-3--3-6-6-6-5-5-5|         
 E|-3--3-3--3-1--1-1--1----------------------|




Tap to rate this tab
 
# A B C D E F G H I J K L M N O P Q R S T U V W X Y Z