Song name
# A B C D E F G H I J K L M N O P Q R S T U V W X Y Z

The Stooges - Loose tab

2. Loose-The Stooges

   Guitar-Ron Asheton

   From the Album: Funhouse

   Intro

e------------------------------------|
B------------------------------------|
G---9--9--9--9--9--9--9--9--9--9-----|
D---9--9--9--9--9--9--9--9--9--9-----|
A---7--7--7--7--7--7--7--7--7--7-----|
E------------------------------------|

  Verse

e--------------------------------|
B--------------------------------|
G----------12--x--14--14--14-----|
D---14--x--12--x--14--14--14-----|
A---14--x--10--x--12--12--12-----|
E---12--x------------------------|

  Chorus

e---------------------------------------------------------|
B---------------------------------------------------------|
G---11--11-11--11--11-11--11-11---9--9-9--9--9-9--9-9-----|
D---11--11-11--11--11-11--11-11---9--9-9--9--9-9--9-9-----|
A----9---9--9---9---9--9---9--9---7--7-7--7--7-7--7-7-----|
E---------------------------------------------------------|

  Verse (lead)

e---------------------------------------------------------------------------|
B---------------------------------------------------------------------------|
G--14b--------------------------12--12--14b-14b--------12---14--14br--12----|
D-----------------------14--14--------------------14------------------------|
A---------------------------------------------------------------------------|
E---------------------------------------------------------------------------|
   Start with this slow
   bend on the 14th fret
   right before the verse
   and then tear into it.

  Interludes

e------------------------------------- --12--12--15--17--17b-17b-17b-17b----|
B------------------------------------- -------------------------------------|
G------------------------------------- -------------------------------------|
D-----12--14--14b--14b--14br--12--14-- -------------------------------------|
A-/14--------------------------------- -------------------------------------|
E------------------------------------- -------------------------------------|
   1:10                                  1:25


   Solo

e-----------------------------------------------11--12b-12b-12b-12b-12b-12b-|
B-------------------------------12--12-12-12h13-----------------------------|
G-------------------------12h14---------------------------------------------|
D-14-14-14-14-14-14-14-14---------------------------------------------------|
A---------------------------------------------------------------------------|
E---------------------------------------------------------------------------|
   1:44

  You Return to the verse for about 2 bars and then....

e---------------------------------------------------------------------------|
B---------------------------------------------------------------------------|
G----------------------14b-14b---14b-14b-14b-14b--14h16p14------12----------|
D--12-12-12--12-14-12---------------------------------------14-----14-------|
A---------------------------------------------------------------------------|
E---------------------------------------------------------------------------|
   2:00


e---------------------------------------------------------------------------|
B---------------------------------------------------------------------------|
G---------------------------------------------------/14--14br--14--12--14b--|
D-------12---12h14p12----12-14-12--14br-14----12-14-------------------------|
A--/14----------------14-------------------14-------------------------------|
E---------------------------------------------------------------------------|
   2:05


e---------------------------------------------------------------------------|
B---------------------------------------------------------------------------|
G--14b--14b--14b--12-----------------------12--14p12----12--14-12-14-12-----|
D--------------------14-12-14-------12-14------------14---------------------|
A-----------------------------12h14-----------------------------------------|
E---------------------------------------------------------------------------|
   2:11

e-----------------------------------------------------------------------|
B-----------------------------------------------------------------------|
G--14b--14b-14b-14b--12----12--12-------------------------------12------|
D-----------------------14--------14-12-14-------12-14-------12----14---|
A------------------------------------------12h14-------12h14------------|
E-----------------------------------------------------------------------|
   2:16


e------------------------------------------------------------------------|
B------------------------------------------------------12-----0--0--0----|
G------------12----14b--14b-14b--12-12h14p12----12-14--14b----2b-2b-2b---|
D------12-14----14---------------------------14--------------------------|
A---14-------------------------------------------------------------------|
E------------------------------------------------------------------------|
  2:20

e----------------------------------------------------------------------|
B---0--0--0--------0--0--0---------------12----12-14--14br-12----------|
G---2b-2b-2b-------2b-2b-2b-----------------14----------------14-------|
D----------------------------------------------------------------------|
A----------------------------------------------------------------------|
E----------------------------------------------------------------------|
  2:26                                              Then go back to the
                                                     verse and finish up
                                                       the song.


Here is a quick guide to how I denote certain actions on the guitar

Slide up = /

Slide Down = \

Bend = b

Pre Bend = pb

Release = r

Hammer On = h

Pull Off = p

Vibrato = v

Mute = x
Tap to rate this tab
 
# A B C D E F G H I J K L M N O P Q R S T U V W X Y Z