Song name
# A B C D E F G H I J K L M N O P Q R S T U V W X Y Z

The Stooges - Search And Destroy tab

Search And Destroy (intro/solo) - Iggy & The Stooges
Tuning: EADGBE

v = Strum downwards
^ = Strum upwards
XbY = Half bend from X, release on Y
XB = Half bend from X, hold bend
XV = Vibrato on X


   INTRO (with chords/strumming pattern)

     C#5                     F#5              C#5
|------------------------|----------------------------|--------------------------|
|------------------------|----------------------------|--------------------------|
|------------------------|---11-11-11-11--------------|--------------------------|
|---11----11-----11-11---|---11-11-11-11------11-11---|---11-11-11-11-11-11-11---|
|---11----11-----11-11---|---9--9--9--9-------11-11---|---11-11-11-11-11-11-11---|
|---9-----9------9--9----|--------------------9--9----|---9--9--9--9--9--9--9----|

    v     v      ^  v        v  ^  v  ^       ^  v        v  ^  v  ^  v  ^  v

     F#5              C#5
|----------------------------|
|----------------------------|
|---11-11-11-11--------------|
|---11-11-11-11------11-11---|
|---9--9--9--9-------11-11---|
|--------------------9--9----|

    v  ^  v  ^       ^  v


   SOLO

|---------------------------|-----------------------|--------------|
|---------------------------|-----------------------|--------------|
|------9-11-11b11----9------|--9-11-9-11B-11-9-11---|---9V---------|
|---11------------11---11---|-----------------------|--------11V---|
|---------------------------|-----------------------|--------------|
|---------------------------|-----------------------|--------------|

 |-----------------------------|---------12-------12-14b14---|---12-14-12V---|
|---14-14-14-14-12----12------|---12-14-------14------------|---------------|
|------------------13----13---|-----------------------------|---------------|
|-----------------------------|-----------------------------|---------------|
|-----------------------------|-----------------------------|---------------|
|-----------------------------|-----------------------------|---------------|
Tap to rate this tab
 
# A B C D E F G H I J K L M N O P Q R S T U V W X Y Z