Song name
# A B C D E F G H I J K L M N O P Q R S T U V W X Y Z

The Stooges - I Wanna Be Your Dog tab

Artist: The Stooges
Album: The Stooges
Title: I Wanna Be Your Dog

Standard Tuning

feel free to e-mail me: letszapago@gmail.com

So, here we go, the solo of an amazing song.

Everything tabbed by me -Julian Habenicht- except the very last part.
Credits for the last part goes to Richard B. richardb123uk@yahoo.co.uk
I just transcribed the last part into standard tuning

e-------------------------------------------------------|
B-------------------------------------------------------|
G-------------------------------------------------------|
D--11/12-11-12-12b14-12-11-11h12p11-9-7h9p7h9p7h9p7h9p7-|
A-------------------------------------------------------|
E-------------------------------------------------------|

e--------------------------------------------------|
B--------------------------------------------------|
G--------------------------------------------------|
D-11/12-11-12-11/12/14-14/15-14-12--14-7/9-7/9-7/9-|
A--------------------------------------------------|
E--------------------------------------------------|

e-----------------------------------------------------|
B-----------------------------------------------------|
G--------------------------12b------------------------|
D-/12-12-12/14-12/14-12/14-----14p12h14p12-11h12p11-9-|
A-----------------------------------------------------|
E-----------------------------------------------------|

e-------------------------------------------|
B-------------------------------------------|
G-------------------------------------------|
D-------------------------------------------|
A-12--9----9-12-9------------10h12p10-12-12-|
E-------10---------10--13p11----------------|

e------------------------------------------------------------------|
B------------------------------------------------------------------|
G-----------------------------------------------------14b-12-14-12-|
D-/12-11-12-12/14-12-14-14/16-14-12-14-------12h14p12--------------|
A--------------------------------------12h14-----------------------|
E------------------------------------------------------------------|

e-------------------------------------------------------------|
B-------------------------------------------------------------|
G----------12br-----------------------------------------------|
D-14p12h14------14-----14-------------------------------------|
A-------------------12----12b13br-12h14-12--------------------|
E------------------------------------------15-12h15-12\10-12--|


Enjoy!!!
Tap to rate this tab
# A B C D E F G H I J K L M N O P Q R S T U V W X Y Z