Song name
# A B C D E F G H I J K L M N O P Q R S T U V W X Y Z

The Stooges - Penetration tab

Tuned A Half Step Down
() = palm mute
h = hammer
/ = slide into

by Cheeseness

Penetration:

------------------------------------------------|
--------------1---------------------------------|
----------0h2-------0h2-0---------------0h2-0---|
------------------------------2-----------------|
-(0)-(0)--------(0)-------(0)----(0)-(0)--------|
------------------------------------------------|


------------------------------------------------|
------------------------------------------------|
------------------------------------------------|
-0-----5----0----7---10-------------------------|
----/7---7----/9---9----------------------------|
------------------------------------------------|
Tap to rate this tab
 
# A B C D E F G H I J K L M N O P Q R S T U V W X Y Z