Song name
# A B C D E F G H I J K L M N O P Q R S T U V W X Y Z

The Stooges - Johanna tab

intro:
E----------------------------------||
B----------------------------------||
G----------------------------------||
D-3-1----1-------------------------||
A------3----3-1-3-1----1-----------||
E---------------------4-----4-1----||

Verse:
|--2--------2--|
|--2--3--2--2--|
|--2--5--2--2--|
|--4--4--2--4--|
|--4--5-----4--|
|--2--------2--|

Chours:
|--2--------|------------|
|--2--3--4--|------------|
|--2--5--4--|--4b--2-----|
|--4--4--4--|--4b--2--4--|
|--4--5--2--|---------4--|
|--2--------|------------|

Break:
|--------------|
|--------------|
|-----7--2-----|
|--2--7--2--4--|
|--2--5--0--4--|
|--0--------2--|
Tap to rate this tab
 
# A B C D E F G H I J K L M N O P Q R S T U V W X Y Z