The Stooges - 1970 tab

Song: 1970
Band: The Stooges
Album: Fun House
Tabbed by: Hannes Fors
=================================================================

The main riff (intro and verse):

   E  S E.  E  E  E  E  E
e|------------------------|
B|------8---8-------------|
G|-9--9-7---7-------------|
D|-9--9-5---5-----5-----5-|
A|-7--7--------7-----7----|
E|------------------------|


-----------------------------------------------------------------

The chorus:

   H.                Q      H.                Q
e|------------------------|------------------------|
B|------------------------|------------------------|
G|-5-----------------5----|-7-----------------7----|
D|-5-----------------5----|-7-----------------7----|
A|-3-----------------3----|-5-----------------5----|
E|------------------------|------------------------|

   E  S E.  E  E  E  E  E   E  S E.  E  E  E  E  E
e|------------------------|------------------------|
B|------8---8-------------|------8---8-------------|
G|-9--9-7---7-------------|-9--9-7---7-------------|
D|-9--9-5---5-----5-----5-|-9--9-5---5-----5-----5-|
A|-7--7--------7-----7----|-7--7--------7-----7----|
E|------------------------|------------------------|

   H.                Q      H.                Q
e|------------------------|------------------------|
B|------------------------|------------------------|
G|-5-----------------5----|-7-----------------7----|
D|-5-----------------5----|-7-----------------7----|
A|-3-----------------3----|-5-----------------5----|
E|------------------------|------------------------|

   H + E          Q     E   H + E          Q     E
e|------------------------|------------------------|
B|------------------------|------------------------|
G|-9--------------7-----5-|-7--------------4-----5-|
D|-9--------------7-----5-|-7--------------4-----5-|
A|-7--------------5-----3-|-5--------------2-----3-|
E|------------------------|------------------------|

   H + E          Q     E  
e|------------------------|
B|------------------------|
G|-7--------------4-----5-|  Back to the main riff again.
D|-7--------------4-----5-|
A|-5--------------2-----3-|
E|------------------------|


-----------------------------------------------------------------
Song structure:

Intro 
Verse
Chorus
Verse
Chorus
Solo
More solo
Soloslsolsososolols
Some noise
End

=================================================================
Tap to rate this tab
 
# A B C D E F G H I J K L M N O P Q R S T U V W X Y Z